E.M.I.L. - Barfly

  • (2 voturi)
  • Contribuție:  godjitura
  • Ultima actualizare: 24.10.2012
Chitara 1 si 2 in paralel
  Intro


 Chitara 1
 e-----15----15----15----15----15---12-------------------------------
 b--12----12----12----12----12----------14--14--14--12---------------
 g------------------------------------------------------14--12-------
 d--------------------------------------------------------------14---


 Chitara 2
 
 d---2-2-2-2-2-2-2-2-2-2-2-2-2-2--2-2-2-5-5-5-5-5-5-5-7-7-7-7-7-7-7-
 a---2-2-2-2-2-2-2-2-2-2-2-2-2-2--2-2-2-5-5-5-5-5-5-5-7-7-7-7-7-7-7-
 e---0-0-0-0-0-0-0-0-0-0-0-0-0-0--0-0-0-3-3-3-3-3-3-3-5-5-5-5-5-5-5-


 E
 a doua oară e la fel ca la început
  G            A
  paharul îmi alunecă pe gât
  E
  fumul mi se înfundă-n organism
   G                A
  lumina din spate e roşu aprins
   E                     
  încerc să visez arome de iarbă
   G                     A            
  corpul îmi vibrează cu o dorinţa oarbă
   E
  comunic, zâmbesc şi aprind ţigări
   G                    A
  iubesc toată noaptea şi-ajung acasă-n zori

  
 E
 a treia oară e la fel ca la început
  G           A           
  paharul imi alunecă pe gât
   E                  
  sunt înconjurat de femei frumoase
   G                  A 
  inspir parfumuri şi vorbe duioase
   E                     
  mirosul de whisky mă face să tresar,
   G             A      
  fata de la bar zâmbeşte vulgar
   E
  afară e aproape lumină, capul mi-e greu
   G                   A
  sticla aproape plină, aşa se-ntamplă mereu
   E
  ea încă ma ţine în braţe şi acum
   G                   A
  în sufletul ei cald, sufletul meu scrum …


 C#m                G#m
   şi doar privirea ei mă face să zbor …

  E
 a patra oară e la fel ca la început
  G            A
  paharul îmi alunecă pe gât
  E 
  ani trecuţi, sentimente pierdute
  G               A
  iubiri alungate, uitate şi mute
  E
  acum destinul îmi zâmbeşte amar
  G                  A         
  mirosul de whisky mă face să tresar
  E
  privesc doar înainte către răsărit
  G               A
  rănile se pierd uşor în înfinit
  E
  ea incă ma ţine în braţe si acum
  G                A
  sufletul ei cald, sufletul meu scrum..


 C#m                 G#m
  şi doar privirea ei mă face să zbor …
 C#m                 G#m
  şi doar privirea ei mă face să zbor …
C#m                 G#m               A
  şi doar privirea ei mă face să zbor …

  e------------------------
  b------------------------
  g--9-9-9--6-6-6-6--4-4-4-
  d--9-9-9--6-6-6-6--4-4-4-
  a--7-7-7--4-4-4-4--2-2-2-
  e------------------------
     E      C#m      B
 
 Solo
  e------------------------------------------------------------------------------------|
  b------------------------------------------------------------------------------------|
  g------------------------------------------------------------------------9--b11--9---|
  d------------------------------------------------------------------9--11-------------|
  a----7--9---7-9-s11--7---6-h7-h6-h7-h6-h7-h6-h7---7--9--7--9--s11--------------------|
  e--9--------------------------------------------9------------------------------------|


 E
 aleargă alături de mine şi lasa
  C#m            B
  în urma ta tot ce a fost
  E
  iubeşte alături de mine şi n-ai sa-ţi
  C#m            B
  pui intrebări fara rost
  E
  speranţa se naşte din setea de viaţă
   C#m            B
  si tu mă faci sa sper
  E
  sunt umbra din cartea făra prefaţă
  C#m            B
  iar tu imi eşti reper 


  C#m                G#m
  şi doar privirea ei mă face să zbor …
C#m                G#m
  şi doar privirea ei mă face să zbor …
C#m                G#m                 A
  şi doar privirea ei mă face să zbor …
  • ghit razvan
    3 iulie 2012 11:40
    Merci, merci...sa fie! :D
  • godjitura
    3 iulie 2012 00:40
    Merci,ai dreptate acolo la Am,dar oricum folosesti doar power chords..Oricum,bafta cu Ska-nk!;)
  • ghit razvan
    2 iulie 2012 01:16
    Foarte ok tabulatura...doua mici rectificari as face...in loc de Bm as pune B...si in loc de Am as pune A...oricum, bravo!
6Ld5REUUAAAAAA1PBEDya2BDGnf5rYKeKnmYm4Cz
560128691ac7deef2d82aa154bbdc1e2