E.M.I.L. - Enervat si plin de stres

  • (1 voturi)
  • Contribuție:  metall_966
  • Ultima actualizare: 04.07.2008
Intro (+acordurile de la strofa p ciln)
-------------------------------------------------------------   
---0-0-0-----0-2----2--4--2--0--2--0--4--5--4--0---4--2------   
----------0------0-------------------------------------------   
-------------------------------------------------------------   
-------------------------------------------------------------   
{}Da-i drumul...{}

Strofa:
--------------------
--------------------
------4---5---------(palm mute)
--5---4---5---7-----
--5---2---3---7-----
--3-----------5-----

Refren:
--------------------
--------------------
------5---7---------
--2---5---7---10h9--
--2---3---5---10h9--
--0-----------8h 7--

Solo
-------------------------------------------------------------------
--------1--3--1-----1----------------------------------------------         
--0-2-4----------4-----4--2--0----2--0--2--4--2--4--2~~~(vibrato)--
-------------------------------------------------------------------   X2
-------------------------------------------------------------------
-------------------------------------------------------------------


Cat,mi-as dori,sa dau timpul inapoi,
Ce sa fac,dac-am fost prost,
Nu mai pot schimba ce a fost

Refren(x2):
Enervat si plin de stres,
Proasta femeie mi-am ales

Ne-am despartit cand ai vorbit
Si amicii mei te-au auzit
Si ti-am spus sa nu mai vi cu mine,
Cand vorbesti ma umpli de rusïne

Refren(x6):..
  • ghit razvan
    7 iulie 2008 15:09
    id-ul meu e "razvan_ghit"...poti sa-l bagi si mai putem vb cand avem nelamuriri...bafta si tie ;)
  • metall_966
    6 iulie 2008 23:30
    sincer acordurile p strofa sunt ok. nu fac p grozavul dar sunt chiar bune:P in schimb pe refren nu te contrazic:-s acolo chiar nu sunt sigur.oricum trebuie respectata munca ,nu numai din partea ta:P.sincer apreciez k ai dat atentzie tabului meu.bafta si vreau si eu idu-l tau;)
  • ghit razvan
    5 iulie 2008 12:49
    partea de intro e aproximativ ok...iti trimit pe mail sa vezi cam ce as modifica eu la intro-ul tau...in schimb acordurile...acolo mi se pare ca e problema...eu pe strofa vad G Em C D si pe refren Em C D G...mie imi suna mai bine asa...acuma nah depinde de fiecare ce aude...
  • metall_966
    5 iulie 2008 10:16
    introul e exact acelasi din melodia originala....o sa-tzi fac unl in guitar prosa vezi;)
  • ghit razvan
    3 iulie 2008 21:14
    no offense...dar nici intro-ul nu suna bine si nici acordurile nu sunt bune...nu dau rating k sa nu te descurajez...eu am pus un tab la piesa asta...suna mai bine ;)
6Ld5REUUAAAAAA1PBEDya2BDGnf5rYKeKnmYm4Cz
ebb019bc756cc34752768c90bf8ba618