E.M.I.L. - In Vama

  • (1 voturi)
  • Contribuție:  anonim502
Intro :

    C
e|---------------------------------|
b|---------------------------------|
g|--5-------------5-----5----------|
d|--5-------------3-----5----------|
a|--3-3-3-3-3-3-3-3-3-3-3-3-3-3-3--|
e|---------------------------------| x2
pm    . . . . . .   . .   . . . .

Vers :

    C                                G
e|---------------------------------|---------------------------------|
b|---------------------------------|---------------------------------|
g|--5-------------5-----5----------|---------------------------------|
d|--5-------------3-----5----------|--5-------------5-----5----------|
a|--3-3-3-3-3-3-3-3-3-3-3-3-3-3-3--|--5-------------5-----5----------|
e|---------------------------------|--3-3-3-3-3-3-3-3-3-3-3-3-3-3-3--|
pm    . . . . . .   . .   . . . .      . . . . . .   . .   . . . .

    D                                 F              G
e|---------------------------------|---------------------------------|
b|---------------------------------|---------------------------------|
g|--7-------------7-----7----------|---------------------------------|
d|--5-------------5-----5----------|--3--------------5---------------|
a|--5-5-5-5-5-5-5-5-5-5-5-5-5-5-5--|--1--------------5---------------|
e|---------------------------------|--1--------------3---------------|
pm    . . . . . .   . .   . . . .

Refren :

    C                                 G
e|---------------------------------|---------------------------------|
b|---------------------------------|---------------------------------|
g|--5-5-5-5-5-5-5-5-5-5-5-5-5-5-5--|---------------------------------|
d|--5-5-5-5-5-5-5-3-5-5-5-5-5-5-5--|--5-5-5-5-5-5-5-5-5-5-5-5-5-5-5--|
a|--3-3-3-3-3-3-3-3-3-3-3-3-3-3-3--|--5-5-5-5-5-5-5-5-5-5-5-5-5-5-5--|
e|---------------------------------|--3-3-3-3-3-3-3-3-3-3-3-3-3-3-3--|

    A                                 F              G
e|---------------------------------|---------------------------------|
b|---------------------------------|---------------------------------|
g|---------------------------------|---------------------------------|
d|--7-7-7-7-7-7-7-7-7-7-7-7-7-7-7--|--3-3-3-3-3-3-3--5-5-5-5-5-5-5---|
a|--7-7-7-7-7-7-7-7-7-7-7-7-7-7-7--|--1-1-1-1-1-1-1--5-5-5-5-5-5-5---|
e|--5-5-5-5-5-5-5-5-5-5-5-5-5-5-5--|--1-1-1-1-1-1-1--3-3-3-3-3-3-3---|