E.M.I.L. - Stari amare

  • (15 voturi)
  • Contribuție:  ghit razvan
  • Ultima actualizare: 22.06.2009
INTRO:

C Em C Em
 
      C                    Em
e|-----------3---3----|-----------7---7-----|
B|-----------5---5----|-----------8---8-----|
G|--------5----5------|--------9----9-------|
D|------5-------------|------9--------------|
A|----3---------------|----7----------------|
E|--------------------|---------------------|


C                        Em
Oare, ce sens are sa mai scriu
C                       Em
Despre relatii pierdute-n pustiu
Dm                     G 
Nu e bine, nu, nu, nu e bine

C             Em
Pana la 20 de ani,
C                     Em
Mi s-a parut un simplu joc 
Dm                             G 
Visam si ma scufundam in stari amare
  

Eu imi faceam din deprimare o stare 
Chiar daca lumea nu avea culoare 
Nu imi pasa, sau poate nu ma interesa

     C                    Em    
REF: Important si normal e sa simti 
     C                  Em
     Si nu-i firesc tu sa eviti 
     Dm                         G
     Tot ce e bun, daca ai stii ce simt acum

     Crede-ma ca nu vreau sa te-nvat
     Vezi si tu si eu ce se intampla
     Miercuri sau joi nu e an fara nori, fara ploi

Nu intram si evitam o stare
Ce nu duce decat la disperare 
Poate o sa intelegi  ce usor este sa te pierzi

La sfarsit vreau doar sa iti zic 
Sa incerci sa fi mai optimist 
Decat esti acum si-o sa intelegi ce-ti spun...

REF:
  • ghit razvan
    22 iunie 2009 13:20
    cam asa ar trebui...e cu bareuri:

    C Em
    e|-----------3---3----|-----------7---7-----|
    B|-----------5---5----|-----------8---8-----|
    G|--------5----5------|--------9----9-------|
    D|------5-------------|------9--------------|
    A|----3---------------|----7----------------|
    E|--------------------|---------------------|
  • ghit razvan
    22 iunie 2009 13:05
    nu e nici ala...pun imediat intro-ul corect...faza e ca tabulatura asta am facut-o cand aveam cateva luni de chitara...si vad ca nu prea imi ieseau in perioada aia :))
6Ld5REUUAAAAAA1PBEDya2BDGnf5rYKeKnmYm4Cz
09bf08fd719a93738a029fb37dac088f