Fără Zahăr - Ali Luia (Declaratie de avere)

  • (2 voturi)
  • Contribuție:  Volkane
  • Ultima actualizare: 23.10.2011
Solistica:

e|---------0-0h2p0---2-3-5---5---5-----------0-0h2p0---2-3-5---5---5-|
B|-3---3-3---------3-------2---2-----3---3-3---------3-------2---2---|
G|---2---------------------------------2-----------------------------|
D|-------------------------------------------------------------------|
A|-------------------------------------------------------------------|
E|-------------------------------------------------------------------|


e|-10-9-7---5---10-9-7---5---3-2-0-------0-------------------|
B|------8---5--------8---5-----------2-------2--s3-3-------3-|
G|---------------------------------2---2---2---------2-2-2---|     bis
D|-------------------------------2-----------------0---------|    dupa
A|-----------------------------------------------------------|   fiecare
E|-----------------------------------------------------------|  strofa
   ^                                                           de
   |__________________________________________________________aici

***

Intro: Solo x1

Ale cui îs munţii şi câmpiile
Ale cui îs strugurii şi viile
Aliluia, îs aliluia, aliluia

Ale cui îs luna şi cu stelele
Ale cui îs merele şi perele
Aliluia, îs aliluia, aliluia

Ale cui îs vacile şi oile
Care nu înoată când vin ploile
Aliluia, îs aliluia, aliluia

Ale cui îs toate rachetuţele
Care-mi zboară capul şi mânuţele
Aliluia, tot aliluia, tot aliluia

***

Succes!