Fără Zahăr - Hip-Hop Si Asa

  • (7 voturi)
  • Contribuție:  anonime
/ |/ | .-~/
                          T\\ Y  I  |/  /  _
         /T               | \\I  |  I  Y.-~/
        I l   /I       T\\ |  |  l  |  T  /
     T\\ |  \\ Y l  /T   | \\I  l   \\ `  l Y
 __  | \\l   \\l  \\I l __l  l   \\   `  _. |
 \\ ~-l  `\\   `\\  \\  \\\\ ~\\  \\   `. .-~   |
  \\   ~-. \"-.  `  \\  ^._ ^. \"-.  /  \\   |
.--~-._  ~-  `  _  ~-_.-\"-.\" ._ /._ .\" ./
 >--.  ~-.   ._  ~>-\"    \"\\\\   7   7   ]
^.___~\"--._    ~-{  .-~ .  `\\ Y . /    |
 <__ ~\"-.  ~       /_/   \\   \\I  Y   : |
   ^-.__           ~(_/   \\   >._:   | l______
       ^--.,___.-~\"  /_/   !  `-.~\"--l_ /     ~\"-.
              (_/ .  ~(   /\'     \"~\"--,Y   -=b-. _)
               (_/ .  \\  :           / l      c\"~o \\
                \\ /    `.    .     .^   \\_.-~\"~--.  )
                 (_/ .   `  /     /       !       )/
                  / / _.   \'.   .\':      /        \'                 
                  ~(_/ .   /    _  `  .-<_                          
                    /_/ . \' .-~\" `.  / \\  \\          ,z=.
                    ~( /   \'  :   | K   \"-.~-.______//
                      \"-,.    l   I/ \\_    __{--->._(==.
                       //(     \\  <    ~\"~\"     //
                      /\' /\\     \\  \\     ,v=.  ((
                    .^. / /\\     \"  }__ //===-  `
                   / / \' \'  \"-.,__ {---(==-
                 .^ \'       :  T  ~\"   ll
                / .  .  . : | :!        \\\\
               (_/  /   | | j-\"          ~^
                 ~-<_(_.^-~\"

     A TAB BY FLAVI...nicky_flavi_16@yahoo.com

	Melodie: Hip Hop Si Asa ; Artist: Fara Zahar
	
	Sper ca acest tab sa va ajute sa descoperiti o metoda 
          de a canta aceasta melodie.Have funn!! 


e|-------4-------4-----4-----5-------5---5\\4-----4-------4-----4-| 
B|---------------------------------------------------------------|
G|---------------------------------------------------------------|[1]
D|---------------------------------------------------------------|
A|---------------------------------------------------------------|
E|----4-----4-4-----4-----5-----5-5-----5-----4-----4-4-----4----|
                                                                                              
											     
e|-------4-------4-----4-----5-------5---5\\4-----4-------4-----4-| 
B|---------------------------------------------------------------| 
G|---------------------------------------------------------------|[2]
D|---------------------------------------------------------------|
A|---------------------------------------------------------------|
E|----4-----4-4-----4-----5-----5-5-----5-----4-----4-4-----4----|





|--5-4-2-4-5-4-2-4-|
|------------------|[1]
|------------------|  ==>--| Chitara 1
|------------------|	   |
|------------------|       |
|------------------|       |
                           |==> Chitara 1-Va repeta acelasi lucru
                           |	pana la finalul melodiei.Dupa
|--6-5h6p5----------|      |   partea aceasta de intro va intra
|---------7--5--7-7-|      |   Chitara 2,in care si ea va continua
|-------------------| ==>--|   cu acelasi lucru pana la finalul melodiei,
|-------------------|          dar de data aceasta in concordanta cu chitara 1.
|-------------------|[2]
|-------------------|









e|-----------------------------|
B|-----------------------------|
G|-----------------------------| ==>Chitara 2-dupa partea de intro 
D|-------------------------5p4-|   si se va repeta pana la sfarsitul melodiei
A|-------------------4h5p4-----|
E|----3--3h4p3--3--4-----------|