Fără Zahăr - Manea (solo inclus)

  • (1 voturi)
  • Contribuție:  DoarLuca
  • Ultima actualizare: 26.02.2013
(solo)

e --------------------1-1h3p1p0---0-0-5-5-0-0---------------------------------------------
B ----------------1-1-------------------------1-1-3-3-1-1h3p1p0---------------------------
G ------------2-2--------------------------------------------------------------
D 2-2-3-3-2-2---------------------------------------------------------------------------
A --------------------------------------------------------------------------------------


e --------------------1-1h3p1p0---0-0-7-7-4-4---------------------------------------------
B ------------0-0-3-3-------------------------5-5-1-3-1-0h1p0--------
G --------1-1-------------------------------------------------2--
D 0-0-2-2------------------------------------------------------------------------
A ----------------------------------------------------------------------------------




Am
Sunt un băiat de băiat, minunat şi talentat,  
                              E
Număr banii mor duşmanii şi sunt bun la pat.
            E
Aş da ghiulu’ şi cazanu’, puradeii şi Merţanu’ 
                                  Am
Doar să fiu la fel de ’nalt ca Adrianu’.

Da’ e unii care-i fraeri şi zice că n-am cultură,
Eu le dau un pumn în cap ş-un cap în gură.
E doi care mă-nervează, Fără zahăr se numeşte,
Dacă-i prind, să moară mama-i bat pân’ameţeşte!

Când văd dansând câte-o frumoasă seniorită
Uit că recent m-am operat de-apendicită.
Îmi plac gagici, în special cu curu’ mare
Că sunt băiat inteligent şi am valoare.
Am mulţi dolari dau de băut în discotecă
La preteni whiskey, la duşmani rachiu dă sfeclă.
Îmi place să dansez, să mă distrez măi frate,
şi, uite-aici, să-mi cânte Pepe pe la spate!

Nu vreau să mai te iubesc că fincă nu mai te doresc
Căci fincă cât am fost plecat, căci tu m-ai înşelat.
Aş dori din piept să-mi scot inima cu plămâni cu tot
şi dacă vrei să faci un drob scot ş-un ficat.
Mi-ai fost mamă şi iubită chiar bunică uneori
Plus un unchi ş-o verişoară şi-ncă trei surori.
Cred că m-am îndrăgostit şi tare-mi place cum zâmbeşti
Dar mai spală-te pe dinţi că mă omori!


Când văd dansând câte-o frumoasă seniorită
Uit că recent m-am operat de-apendicită.
Îmi plac gagici, în special cu curu’ mare
Că sunt băiat inteligent şi am valoare.
Am mulţi dolari dau de băut în discotecă
La preteni whiskey, la duşmani rachiu dă sfeclă.
Îmi place să dansez, să mă distrez măi frate,
şi, uite-aici, să-mi cânte Pepe pe la spate!



Final: Dm Am E Am


Ca bataie se foloseste rasgueado
Cautati pe youtube tutoriale sau folositi bataia care va convine
  • CorsairX
    21 august 2019 11:51
    Berci, h = hammer-on, iar p = pull-off.

    Astea sunt niste tehnici ( procedee ) prin care o nota care suna poate fi schimbata fara a da o noua bataie cu pana.

    De exemplu: Pe coarda mi subtire, tii nota G ( sol ) pe fretul 3 cu degetul 1 ( index ). Dai cu pana, apoi fara alta panatie, apesi repede cu degetul 3 pe fretul 5, in genul unui ciocan ( hammer )

    Cauta pe youtube ca iti explica 1000 de insi cum se fac. La inceput vor fi frustrante, mai ales pull-offurile, mie nici acuma nu-mi prea ies.
  • Berci
    15 august 2019 13:03
    Geniala transpunerea. Totusi ceva ma bate putin:ce inseamna h si p.Ca acolo nu-mi iese chiar bine.
    Mersi :D