Folclor - Hora lui Fulgerica

-piesa se numeste "Hora lautariilor" transpunere facuta de mine dupa piesa cantata live 
de Constantin Fulgerica.
-nivel avansat.
-acordurile sunt atasate in fisierul guitar pro 5 (gp5).
-piesa e scrisa in C minor,transpunere pt acordeon(keyboard,pian).

**************************
Solo
**************************
E |----------------------------------------------------------------------------|
B |----------------------------------------------------------------------------|
G |--------------------0--------2--------0-----2-----0-----0-------------------|
D |-----------1-----------------------------------------------------1----------|
A |--3-------------------------------------------------------------------------|
E |----------------------------------------------------------------------------|


----------------------------|
----------------------------|
--------0--2--0-------------|
-----1-----------1-----0----|
--3-----------------2-------|
----------------------------|


----------------------------------------------------------------------------|
----------------------------------------------------------------------------|
-----------------------------0--------------0-------------------------------|
--------------------3-----------------3-----------3-----3-------------------|
--1--------4-----------------------------------------------------4----------|
----------------------------------------------------------------------------|


----------------------------|----------------------------|
----------------------------|----------------------------|
-----------0----------------|-----------0--1--0-----0----|
--------3-----3-------------|--------3-----------4-------|
--1--4-----------4--0--3----|-----3----------------------|
----------------------------|--4-------------------------|


----------------------------------------------------|
----------------------------------------------------|
--------------------------------------2-----0-------|
--4-----------0-----1-----4--3--4-----4-------------|
--------3-------------------------------------------|
----------------------------------------------------|


----------------------------|
----------------------------|
--0-----------------0-------|
-----4--1--0--1--4-----1----|
----------------------------|
----------------------------|


----------------------------------------------------------------------------|
----------------------------------------------------------------------------|
--------------------------------------------------------------0-----3-------|
--------------------------------------------1-----3-----4-------------------|
--3-----------------------1-----2-----3-------------------------------------|
--------------------3-------------------------------------------------------|


--------------------3--------5--------3-----5-----3-----3-------------------|
--1--------4-----------------------------------------------------4----------|
----------------------------------------------------------------------------|
----------------------------------------------------------------------------|
----------------------------------------------------------------------------|
----------------------------------------------------------------------------|


--------3--5--3-------------|
--1--4-----------4--0--3----|
----------------------------|
----------------------------|
----------------------------|
----------------------------|


--------------------1--------3--------1-----3-----1-----1-------------------|
-----------2-----------------------------------------------------2----------|
--3-------------------------------------------------------------------------|
----------------------------------------------------------------------------|
----------------------------------------------------------------------------|
----------------------------------------------------------------------------|


--------1--3--1-------------|--------1--3--4--3--2--3----|
-----2-----------2-----1----|-----1----------------------|
--3-----------------2-------|--1-------------------------|
----------------------------|----------------------------|
----------------------------|----------------------------|
----------------------------|----------------------------|


--2-----------------------2--1--2-----2-----3-------|
--------1-----3-----4-----------------10------------|
----------------------------------------------------|
----------------------------------------------------|
----------------------------------------------------|
----------------------------------------------------|


--3--2-----------2--3-------|----------------------------||
--------4--3--4--------4----|--1--------------------0----||
----------------------------|-----------------0--2-------||
----------------------------|----------------------------||
----------------------------|----------------------------||
----------------------------|----------------------------||


----------1--2--3--11-7----|--10-8--7--8--3-------------|
-1--3--4-------------------|-----------------3--4--1----|
o--------------------------|----------------------------|
o--------------------------|----------------------------|
---------------------------|----------------------------|
---------------------------|----------------------------|


--3--5--6--7--8-----4--8----|
-----------------4----------|
----------------------------|
----------------------------|
----------------------------|
----------------------------|


--6-----8-----6-----4-----3-----4-----4--------3--------1-------------------|
-----------------------------------------------------------------4----------|
----------------------------------------------------------------------------|
----------------------------------------------------------------------------|
----------------------------------------------------------------------------|
----------------------------------------------------------------------------|


-----------------1--4--8----|
-----------0--3-------------|
--------1-------------------|
--0--3----------------------|
----------------------------|
----------------------------|


--7--------4--------3-----4-----3-----3--------0--------1--------3----------|
----------------------------------------------------------------------------|
----------------------------------------------------------------------------|
----------------------------------------------------------------------------|
----------------------------------------------------------------------------|
----------------------------------------------------------------------------|


--4--3--4--1--3--0--1--3----|
----------------------------|
----------------------------|
----------------------------|
----------------------------|
----------------------------|


--------1-----------------------------1------------------------------------||
--4-----------4-----3--------1--------3--------4--------1------------------||
--------------------------------------------------------------------------o||
--------------------------------------------------------------------------o||
---------------------------------------------------------------------------||
---------------------------------------------------------------------------||


--------------1-----------------------------------------------------------------
--4-----------------------4-----------3-----------------1-----------------1-----
--------------------------------------------------------------------------------
--------------------------------------------------------------------------------
--------------------------------------------------------------------------------
--------------------------------------------------------------------------------


--------------------------------------------------------------------||
---0--------1--------0--------1-------------------------------------||
--------------------------------------------------------------------||
--------------------------------------------------------------------||
--------------------------------------------------------------------||
--------------------------------------------------------------------||


-------------------------------------1-------------------------------------|
-0-----------------3-----2-----3--------------3--------4--------0----------|
o--------------------------------------------------------------------------|
o--------------------------------------------------------------------------|
---------------------------------------------------------------------------|
---------------------------------------------------------------------------|


-----------------3--1--0----|
--3-----0-------------------|
-----1-----0--1-------------|
----------------------------|
----------------------------|
----------------------------|


----------------------------------------------------------------------------|
--4--------3--------1--------3--------1-----3-----1-------------------------|
--------------------------------------------------------3-------------------|
----------------------------------------------------------------------------|
----------------------------------------------------------------------------|
----------------------------------------------------------------------------|


----------------------------------------------------------------------------|
-----------1----------------------------------------------------------------|
--------------------3--------1-----3-----1-----1----------------------------|
--1-------------------------------------------------------------------------|
----------------------------------------------------------------------------|
----------------------------------------------------------------------------|


----------------------------|
----------------------------|
-----------0--1--0-----0----|
--------3-----------4-------|
-----3----------------------|
--4-------------------------|


----------------------------------------------------|
----------------------------------------------------|
--------------------------------------2-----0-------|
--4-----------0-----1-----4--3--4-----4-------------|
--------3-------------------------------------------|
----------------------------------------------------|


----------------------------|---------------------------||
----------------------------|---------------------------||
--0-----------------0-------|--------------0--1--2--3--o||
-----4--1--0--1--4-----1----|-----0--1--4--------------o||
----------------------------|--3------------------------||
----------------------------|---------------------------||


----------------------------------------------------|
--------------------------1-------------------------|
--------------------------2-----------0-------------|
--------------------------1-----------1-------------|
--3--2--3--2--3-----------10----------12------------|
--------------------------------------8-------------|


----------------------------------------------------------------------------|
----------------------------------------------------------------------------|
--------------------0--------2--------0-----2-----0-----0-------------------|
-----------1-----------------------------------------------------1----------|
--3-------------------------------------------------------------------------|
----------------------------------------------------------------------------|


----------------------------|
----------------------------|
--------0--2--0-------------|
-----1-----------1-----0----|
--3-----------------2-------|
----------------------------|


----------------------------------------------------------------------------|
----------------------------------------------------------------------------|
-----------------------------0--------------0-------------------------------|
--------------------3-----------------3-----------3-----3-------------------|
--1--------4-----------------------------------------------------4----------|
----------------------------------------------------------------------------|


----------------------------|----------------------------|
----------------------------|----------------------------|
-----------0----------------|-----------0--1--0-----0----|
--------3-----3-------------|--------3-----------4-------|
--1--4-----------4--0--3----|-----3----------------------|
----------------------------|--4-------------------------|


----------------------------------------------------|
----------------------------------------------------|
--------------------------------------2-----0-------|
--4-----------0-----1-----4--3--4-----4-------------|
--------3-------------------------------------------|
----------------------------------------------------|


----------------------------|
----------------------------|
--0-----------------0-------|
-----4--1--0--1--4-----1----|
----------------------------|
----------------------------|


----------------------------------------------------------------------------|
----------------------------------------------------------------------------|
--------------------------------------------------------------0-----3-------|
--------------------------------------------1-----3-----4-------------------|
--3-----------------------1-----2-----3-------------------------------------|
--------------------3-------------------------------------------------------|


--------------------3--------5--------3-----5-----3-----3-------------------|
--1--------4-----------------------------------------------------4----------|
----------------------------------------------------------------------------|
----------------------------------------------------------------------------|
----------------------------------------------------------------------------|
----------------------------------------------------------------------------|


--------3--5--3-------------|
--1--4-----------4--0--3----|
----------------------------|
----------------------------|
----------------------------|
----------------------------|


--------------------1--------3--------1-----3-----1-----1-------------------|
-----------2-----------------------------------------------------2----------|
--3-------------------------------------------------------------------------|
----------------------------------------------------------------------------|
----------------------------------------------------------------------------|
----------------------------------------------------------------------------|


--------1--3--1-------------|--------1--3--4--3--2--3----|
-----2-----------2-----1----|-----1----------------------|
--3-----------------2-------|--1-------------------------|
----------------------------|----------------------------|
----------------------------|----------------------------|
----------------------------|----------------------------|


--2-----------------------2--1--2-----2-----3-------|
--------1-----3-----4-----------------10------------|
----------------------------------------------------|
----------------------------------------------------|
----------------------------------------------------|
----------------------------------------------------|


--3--2-----------2--3-------|
--------4--3--4--------4----|
----------------------------|
----------------------------|
----------------------------|
----------------------------|


--------------------------------------------------3-----8-------------------|
--1-----------------------------------1-----4-------------------------------|
--------------------------------0-------------------------------------------|
--------------------------1-------------------------------------------------|
--------------------3-------------------------------------------------------|
----------------------------------------------------------------------------|

**************************
Acompaniament
**************************

E |----------------|----------------|----------------|----------------|
B |-----1-----1----|-----1-----0----|----------------|----------------|
G |-----0-----0----|-----0-----1----|-----3-----3----|-----3-----2----|
D |-----1-----1----|-----1-----0----|-----3-----3----|-----3-----1----|
A |-----3-----3----|-----3----------|-----1-----1----|-----1-----9----|
E |----------------|-----------13---|-----9-----9----|-----9-----8----|


----------------|----------------|----------------|----------------|
-----1-----1----|----------------|-----0-----0----|-----1-----1----|
-----1-----0----|-----2-----2----|-----0-----0----|-----0-----0----|
-----3-----1----|-----1-----1----|-----0-----0----|-----1-----1----|
-----3-----3----|-----3-----3----|-----------8----|-----3-----3----|
----------------|-----14----14---|-----13---------|----------------|


----------------|----------------|----------------|----------------|
-----1-----1----|-----1-----0----|----------------|----------------|
-----0-----0----|-----0-----1----|-----3-----3----|-----3-----2----|
-----1-----1----|-----1-----0----|-----3-----3----|-----3-----1----|
-----3-----3----|-----3----------|-----1-----1----|-----1-----9----|
----------------|-----------13---|-----9-----9----|-----9-----8----|


----------------|----------------|----------------|----------------||
-----1-----1----|----------------|-----0-----0----|-----1-----1----||
-----1-----0----|-----2-----2----|-----0-----0----|-----0-----0----||
-----3-----1----|-----1-----1----|-----0-----0----|-----1-----1----||
-----3-----3----|-----3-----3----|-----------8----|-----3-----3----||
----------------|-----14----14---|-----13---------|----------------||


---------------|----------------|----------------|----------------|
----1-----1----|-----1-----1----|-----1-----1----|-----4-----4----|
o---0-----0----|-----0-----0----|-----1-----1----|-----3-----0----|
o---1-----1----|-----1-----1----|-----1-----1----|-----1-----1----|
----3-----3----|-----3-----3----|-----3-----3----|-----10----13---|
---------------|----------------|----------------|----------------|


----------------|----------------|----------------|---------------||
-----0-----0----|-----1-----1----|-----0-----0----|-----1-----1---||
-----1-----1----|-----1-----1----|-----0-----0----|-----0-----0--o||
-----0-----0----|-----3-----3----|-----0-----0----|-----1-----1--o||
-----8-----8----|-----3-----3----|-----------8----|-----3-----3---||
----------------|----------------|-----13---------|---------------||


----------------||---------------|----------------|----------------|
-----1-----1----||----0-----0----|-----0----------|-----4-----4----|
-----0-----0----||o---1-----1----|-----1-----1----|-----3-----0----|
-----1-----1----||o---0-----0----|-----0-----0----|-----1-----1----|
-----3-----3----||----8-----8----|-----8-----1----|-----10----13---|
----------------||---------------|-----------13---|----------------|


----------------|----------------|----------------|----------------|
-----------1----|-----1-----1----|----------------|-----0-----0----|
-----1-----1----|-----1-----0----|-----2-----2----|-----0-----0----|
-----10----1----|-----3-----1----|-----1-----1----|-----0-----0----|
-----6-----3----|-----3-----3----|-----3-----3----|-----------8----|
-----8----------|----------------|-----14----14---|-----13---------|


---------------||----------------|----------------|----------------|
-----1-----1---||-----1-----1----|-----1-----1----|-----1-----0----|
-----0-----0--o||-----0----------|-----0-----0----|-----0-----1----|
-----1-----1--o||-----1-----5----|-----1-----1----|-----1-----0----|
-----3-----3---||-----3-----3----|-----3-----3----|-----3----------|
---------------||-----------11---|----------------|-----------13---|


----------------|----------------|----------------|----------------|
----------------|----------------|-----1-----1----|----------------|
-----3-----3----|-----3-----2----|-----1-----0----|-----2-----2----|
-----3-----3----|-----3-----1----|-----3-----1----|-----1-----1----|
-----1-----1----|-----1-----9----|-----3-----3----|-----3-----3----|
-----9-----9----|-----9-----8----|----------------|-----14----14---|


----------------|----------------|----------------|----------------|
-----0-----0----|-----1-----1----|-----1-----1----|-----1-----0----|
-----0-----0----|-----0-----0----|-----0-----0----|-----0-----1----|
-----0-----0----|-----1-----1----|-----1-----1----|-----1-----0----|
-----------8----|-----3-----3----|-----3-----3----|-----3----------|
-----13---------|----------------|----------------|-----------13---|


----------------|----------------|----------------|----------------|
----------------|----------------|-----1-----1----|----------------|
-----3-----3----|-----3-----2----|-----1-----0----|-----2-----2----|
-----3-----3----|-----3-----1----|-----3-----1----|-----1-----1----|
-----1-----1----|-----1-----9----|-----3-----3----|-----3-----3----|
-----9-----9----|-----9-----8----|----------------|-----14----14---|


----------------|----------------|----------||
-----0-----0----|-----1-----1----|----------||
-----0-----0----|-----0-----0----|----------||
-----0-----0----|-----1-----1----|----------||
-----------8----|-----3-----3----|----------||
-----13---------|----------------|----------||