Fotzey - Good To Be Home

Fotzey - Good To be Home

TUNING: Standard (EADGBe)

Legenda :

/ - slide up
~ - vibrato
b - bend
br- bend and release
. - palm mute
h - hammer on
p - pull off

Intro/Chorus
e|-------------------------------------------------------------------------
B|-------------------------------------------------------------------------
G|------0-----0------0-----0-----------------------------------------------
D|----4-----4------4-----4---4---------------------------------------------
A|--2-----3------5-----7---------------------------------------------------
E|-------------------------------------------------------------------------

End Of Chorus : 

e|-------------------------------------------------------------------------
B|-------------------------------------------------------------------------
G|-------------------------------------------------------------------------
D|--5--4-----2-------------------------------------------------------------
A|--3--2--5--0-------------------------------------------------------------
E|--------3----------------------------------------------------------------    


Verse : 

Am: e|-0-------------------------------------------------------------------
    B|-1-------------------------------------------------------------------
    G|-2-------------------------------------------------------------------
    D|-2-------------------------------------------------------------------
    A|-0-------------------------------------------------------------------
    E|---------------------------------------------------------------------


    The sunrise...

D : e|-2-------------------------------------------------------------------
    B|-3-------------------------------------------------------------------
    G|-2-------------------------------------------------------------------
    D|-0-------------------------------------------------------------------
    A|---------------------------------------------------------------------
    E|---------------------------------------------------------------------


    Burning

C : e|-0-------------------------------------------------------------------
    B|-1-------------------------------------------------------------------
    G|-0-------------------------------------------------------------------
    D|-2-------------------------------------------------------------------
    A|-3-------------------------------------------------------------------
    E|---------------------------------------------------------------------



    My face

E : e|---------------------------------------------------------------------
    B|---------------------------------------------------------------------
    G|-1-------------------------------------------------------------------
    D|-2-------------------------------------------------------------------
    A|-2-------------------------------------------------------------------
    E|-0-------------------------------------------------------------------

   Again

Am: e|-0-------------------------------------------------------------------
    B|-1-------------------------------------------------------------------
    G|-2-------------------------------------------------------------------
    D|-2-------------------------------------------------------------------
    A|-0-------------------------------------------------------------------
    E|---------------------------------------------------------------------


Chitara electrica :

  
e|-------------------------------------------------------------------------
B|-------------------------------------------------------------------------
G|-------------------------------------------------------------------------
D|------------------2-2-2-2-2-2-2-2-4-4-4-4-5-5-5-5-7-7-7-7-7-7-7-7--------
A|--2-2-2-2-2-2-2-2-0-0-0-0-0-0-0-0-2-2-2-2-3-3-3-3-5-5-5-5-5-5-5-5--------
E|--0-0-0-0-0-0-0-0--------------------------------------------------------
      . . . . . . .   . . . . . . .   . . .   . . .   . . . . . . . 

e|-------------------------------------------------------------------------
B|-------------------------------------------------------------------------
G|-------------------------------------------------------------------------
D|------------------2-2-2-2-2-2-2-2-4------5------7------------------------
A|--2-2-2-2-2-2-2-2-0-0-0-0-0-0-0-0-2------3------5------------------------
E|--0-0-0-0-0-0-0-0--------------------------------------------------------
      . . . . . . .   . . . . . . . 

Solo: 

e|---------------------------------------------------------------------------------------------
B|---------------------------------------------------------------------------------------------
G|---------------------------------------17-19br21-17--17h19p17-15-17-15----15-----------------
D|--------------12-12-13-14--17--19br21----------------------------------17----17-16h17p16-16
A|12-12-13-14-----------------------------------------------------------------------------19---
E|---------------------------------------------------------------------------------------------

e|------------------------------------------19b21----17h19p17-15-17-15----15---------------
B|------------------------------17-19br21------------------------------18----18-16h18p16---
G|---------------------------17----------------------------------------------------------18
D|-----------------------------------------------------------------------------------------
A|19-17h19p17----17------------------------------------------------------------------------
E|------------19----19-17-19---------------------------------------------------------------
  
e|--------------------------------------------------------------------------------------------
B|16------------------------------------------------------------------/12~--------------------
G|---18-16h18p16----16---------------9-9-9-7-------------------------------9-9-9-7------------
D|---------------18----18-16-18br20----------9-7b8-7b8-7--9-9-9-7-5---------------9-7b8-7b8-7
A|------------------------------------------------------------------7-------------------------
E|--------------------------------------------------------------------------------------------

e|----------------------------------------12-13-15-17-21-19-17-21~------------------------
B|----------------------------10-12-13-15-------------------------------------------------
G|-----------------9-10-12-13-------------------------------------------------------------
D|-------7-9-10-12------------------------------------------------------------------------
A|7-9-10----------------------------------------------------------------------------------
E|----------------------------------------------------------------------------------------