Grigore Leșe - Cantec despre Bucovina (intro)

Un fel de intro. Nu e vb de viorile de la inceput... 
ci de linia melodica de la primul vers...


e---------------------------------------------------------
B--------------------1-1--3/5-5-3-3-1--1------------------
G-2-2--5-5--4-4--2p0-------------------2------------------
D---------------------------------------------------------
A---------------------------------------------------------
E---------------------------------------------------------

Ceva la gen... la ultima nota nu stiu sigur daca e asa...sau e doar La...
sau doar Do.... dar corectati va rog...
  • Sanitarium
    17 ianuarie 2010 18:40
    n-a iesit tabul chiar cum doream, dar intelegi tu..
  • Sanitarium
    17 ianuarie 2010 18:38
    foarte bun tabul, dar parca pe sfarsit nu se leaga... parca e ceva de genu

    --------------------------------
    1-1--3/5-5-3-3/5-3-1------------
    -------------------2------------
    -------------------2------------