Iris - Baby (intro + ciupitura + solo)

Aceasta este introducerea:

   C         Em      Am       Am/G     F        F        G

e|----0-------0-------0-------0-------1-------1-------3-----3----
B|------1-------0-------1-------1-------1-------1-------3---3----
G|--0-------0-------2-------2-------2-------2-------4-------4----
D|----------------------------------------------------------5----
A|3-------2-------0---------------3-------3-------5---------5----
E|----------------------------3-----------------------------3----

Aceasta este ciupitura pe versuri. Doar la refren se canta cu
bataie pe corzi.
 

   Am              Em               F              Dm
e|--------0---------------0---------------1----------------1-
B|----1-------1-------0-------0-------1-------1--------3-----
G|--2---2---2---2---0---0---0---0---2---2---2---2----2---2-----0h2
D|-------------------------------------------------0----------0h2-
A|0---------------2---------------3--------------------------0h2--
E|-------------------------------------------------------------

 In curand poate scot si solo-ul ... sau ceva in armonie.
  • sika
    10 octombrie 2008 18:28
    dap, e ok, bravos! ;)
6Ld5REUUAAAAAA1PBEDya2BDGnf5rYKeKnmYm4Cz
367b9af3358ece17829082ea9cc8beb7