Iris - Lady In Black

  • (2 voturi)
  • Contribuție:  Gerard
  • Ultima actualizare: 26.03.2010
Iris - Lady in Black



 partea de vioara...


a-------5/7-5--3/5-7---7-7s5-3-5--5/7-5-3-----7h8s7--7h8s7-7/10-12-12/10-7-----
E-5---5------------------------------------------------------------------------
D-------------------------------------------\\14--14\\12-10-10/12-12/14-12-10--

 Partea de pe coarda Re am pus-o dedesupt ca nu incapea, eh va dati voi seama!



Am
Era-ntr-o dimineata,
O alba dimineata,
G
A aparut, cu parul ei,
Am
In vantul iernii, nins.

Am
Eu n-am stiut de unde
Si cum de m-a gasit,
G
In noaptea gandurilor sumbre
Am
In mine-a rasarit

e------------------------------------	
b------------------------------------
g------------------------------------
d-7-7-7-7\\5--7-7---------------------
a-7-7-7-7\\5--7-7-----5-7-5-----------
E-5-5-5-5\\3--5-5-5-8-------3(aici nu sunt sigur ori e 3 adica Sol ori e 5 adica La)



Am
She asked me name my foe then, 
I said the need within some men, 
G
To fight and kill their brothers, 
Without thought of love or God, 
Am
And I begged her give me horses, 
To trample down my enemies, 
G
So eager was this passion 
To devour this waste of life. 

A5       C5     G5    A5
Ahhhhh ahhhh ahhhhh ahhhh                  E5 - x799xx
E5       D5     C5
Ahhhhh ahhhh ahhhhh 

A5
But she wouldn’t think of battle that 
Reduces men to animals, 
G5
So easy to begin 
And impossible to end. 
A5
Priveste lumea cu ochi vii, 
Din dragoste ai sa re-nvii, 
G5
S-a-ntors din viata si-a plecat 
Lasand un gand curat 

A5       C5     G5    A5
Ahhhhh ahhhh ahhhhh ahhhh                  E5 - x799xx
E5       D5     C5
Ahhhhh ahhhh ahhhhh 

solo....(va descurcati voi :D)


dupa solo vine asta:
Ahhhhh ahhhh ahhhhh ahhhh  ( pe \"ahhhh\" cantati de mai jos)                 
Ahhhhh ahhhh ahhhhh 
e-------------------------------------------------------------
b-------------------------------------------------------------
g-------------5----------------------9------7------5----------
d-----7-----5--3-----5------7------9--7---7--7---5--5---------X2
a---7--5--3--------5--3---7--5---7------5------3--------------
E-5--------------3------5-------------------------------------

A5
Era-ntr-o dimineata, 
O alba dimineata. 
G5
A aparut, cu parul ei, 
In vantul iernii, nins. 

Bernie: 
A5
And I know not how she found me, 
For in darkness I was walking 
G5
And destruction lay around me, 
                    A5
From a fight I could not wïn. 

A5       C5     G5    A5
Ahhhhh ahhhh ahhhhh ahhhh                 
E5       D5     C5
Ahhhhh ahhhh ahhhhh 

e----------------------------------------------------------------------------
b----------------------------------------------------------------------------
g----------------------------------------------------------------------------
d-------------------------------------------\\14--14\\12-10-10/12-12/14-12-10--X2
a--12--12-14-15--15-14-12--14--14h15s14-12-----------------------------------
E----------------------------------------------------------------------------

         Hai Sanatate si spor!!!! Sper sa fie buna, mie-mi suna ok!!!