Iris - Ultima toamna

Ultima toamna - Iris

Tabbed by Popovici Daniel

Standard tuning

Intro:

E|------------------------------------------------------------------------------|
B|-------------------------------------------3----------------------------------|
G|-----2--2h4---2---------2--2h4---2-------2---2h4---2--------------------------|
D|---2--------2---------2--------2-------0---------0-----------2--2h4--2--------|
A|-0------------------4--------------------------------------2-----------2h4-2--|
E|---------------------------------------------------------0--------------------|


E|----------------------------------------------------------------------^0------|
B|-------------------------------------------3--------------------------|0------|
G|-----2--2h4---2---------2--2h4---2-------2---2h4---2------------------|1------|
D|---2--------2---------2--------2-------0---------0-----------2--2h4---|2------|
A|-0------------------4--------------------------------------2----------|2------|
E|---------------------------------------------------------0------------|0------|


Strofa 1:

E|--------------------------2-----------------0---------------------------------|
B|------------------------5---5---5---------3---3---3---------------------------|
G|-----2--2h4---2-------4-------4---------2-------2-----------------------------|
D|---2--------2-------2-----------------0---------------------2--2h4--2---------|
A|-0--------------------------------------------------------2-----------2h4-2---|
E|--------------------------------------------------------0---------------------| X3

          M-ai rugat din nou acum           Sa ma-ntorc pe vechiul drum
          Noptile au amintiri           Si multe priviri
          Zi de zi eu te chemam             Era tarziu si te visam



La ultimul vers se schimba ultima nota de pe coarda A pe D

E|--------------------------2-----------------0---------------------------------|
B|------------------------5---5---5---------3---3---3---------------------------|
G|-----2--2h4---2-------4-------4---------2-------2-----------------------------|
D|---2--------2-------2-----------------0---------------------2--2h4--2------2--|
A|-0--------------------------------------------------------2-----------2h4-----|
E|--------------------------------------------------------0---------------------| 

          Frunze cad in calea ta        Veneai pe-nserat


Bridge:

E|------------------------------------------------------------------------------|
B|-----3--------3-----------2-------2-----------3--------3--------2-2-2-3p2-0h2-|
G|---2---2----2---2-------2---2---2---2-------2---2----2---2------2-2-2-2---2---|
D|-0--------0-------------------------------0--------0--------------------------|
A|----------------------0-------0--------------------------------0--------------|
E|------------------------------------------------------------------------------|

                Flori de dor la geamul meu

E|----------------------------------0---------------------------|
B|-----3--------3-----------2---3-------------------------------|
G|---2---2----2---2-------2---2---2-----------------------------|
D|-0--------0---------------------------------2--2h4--2---------|
A|----------------------0-------------------2-----------2h4-2---|
E|----------------------------------------0-------------------0-|
                Luna canta valsul tau


Strofa 2:

E|--------------------------2-----------------0---------------------------------|
B|------------------------5---5---5---------3---3---3---------------------------|
G|-----2--2h4---2-------4-------4---------2-------2-----------------------------|
D|---2--------2-------2-----------------0---------------------2--2h4--2---------|
A|-0--------------------------------------------------------2-----------2h4-2---|
E|--------------------------------------------------------0---------------------|

            Toate-au fost la timpul lor        Si mi-am zis ca nu-i usor


La ultimul vers se schimba ultima nota de pe coarda A pe D

E|--------------------------2-----------------0---------------------------------|
B|------------------------5---5---5---------3---3---3---------------------------|
G|-----2--2h4---2-------4-------4---------2-------2-----------------------------|
D|---2--------2-------2-----------------0---------------------2--2h4--2------2--|
A|-0--------------------------------------------------------2-----------2h4-----|
E|--------------------------------------------------------0---------------------| 

            Sa pictez un colt de cer    Cand tot a fost ieri


Bridge...


Refren:

E|------------------------------------------------------------------------------|
B|-------------------------------------------3----------------------------------|
G|-----2--2h4---2---------2--2h4---2-------2---2h4---2--------------------------|
D|---2--------2---------2--------2-------0---------0-----------2--2h4--2--------|
A|-0------------------4--------------------------------------2-----------2h4-2--|
E|---------------------------------------------------------0--------------------|

          Hai    revino    toamna       iar             Cu ploi si soare
	  Tot    ce-a   fost  ca   la-nceput            Din nou apare      X2


Bridge 2:

E|-------3---------------3---1------------------------------------|
B|-----6-----6---------3-----------------1---0-----------0-1p0----|
G|---5-----5---------2-----2-----------2---------------2-------2p0|
D|-3---------------0-----------------2-----2---------2------------|
A|---------------------------------0---------------0--------------|
E|----------------------------------------------------------------|

                 Mhhhhhmmmm


E|-------3-------------3--------------------------^5----|
B|-----6-----6-----------3-----------2--3p2-------|2----|
G|---5-----5---------2-------------2--------4p2---|2----|
D|-3---------------0-------------2----------------|2----|
A|-----------------------------0------------------|0----|
E|------------------------------------------------------|

                 Oowhhhhhh


Refren:

E|------------------------------------------------------------------------------|
B|-------------------------------------------3----------------------------------|
G|-----2--2h4---2---------2--2h4---2-------2---2h4---2--------------------------|
D|---2--------2---------2--------2-------0---------0-----------2--2h4--2--------|
A|-0------------------4--------------------------------------2-----------2h4-2--|
E|---------------------------------------------------------0--------------------|

          Hai    revino    toamna       iar             Cu ploi si soare
	  Tot    ce-a   fost  ca   la-nceput            Din nou apare     

Final:

E|--------------------^5----|
B|-------2--3p2-------|2----|
G|-----2--------4p2---|2----|
D|---2----------------|2----|
A|-0------------------|0----|
E|--------------------------|


Daca aveti probleme in a-l descifra, spuneti si voi face un video :D
Cheers m/

Transpunerile de pe acest site reprezintă viziunea personală a utilizatorilor asupra pieselor.
561a048a8a266ef64121dd65b9de6ddf
f7e9d1d2-ebba-44ba-8198-e810bddf71a6