Kumm - Beautiful country

  • Contribuție:  micutzu
  • Ultima actualizare: 26.04.2010
Intro       	                                   
e----------------------------------------------
b----8---8---8---8----10----10---8---8---------
g--9---9---9---9—--10----10----8---8—----------
d----------------------------------------------
a----------------------------------------------
e----------------------------------------------

Strofe

   C5        A#5   F5              D#5    F5
e-----------------------      ----------------------------
b-----------------------      ----------------------------
g--5-5-5-5-5-3-3-3-—----      -----8-8-8--10—10-10--------
d--5-5-5-5-5-3-3-3-3-3—- x3   -----8-8-8--10-10-10--------
a--3-3-3-3-3-1-1-1-3-3--      -----6-6-6--8--8--8---------
e------------------1-1--      ----------------------------





   F5             D#5   A#             C#5    D#5
e----------------------------     ----------------------------
b----------------------------     ----------------------------
g--10-10-10-10-10-8-8-8-—----     -----6-6-6--8-8-8-----------
d--10-10-10-10-10-8-8-8-8-8—- x3  -----6-6-6--8-8-8-----------
a—-8--8--8--8--8--6-6-6-8-8--     -----4-4-4--6-6-6-----------
e-----------------------6-6--     ----------------------------


Refren

   C        F         D#        C         A#         F
e--3-3-3-3--1-1-1-1--6-6-6-6----3-3-3-3---1-1-1-1---1-1-1-1-----
b--3-3-3-3--1-1-1-1--6-6-6-6----3-3-3-3---1-1-1-1---1-1-1-1-----
g--5-5-5-5--2-2-2-2—-8-8-8-8----5-5-5-5---3-3-3-3---2-2-2-2-----
d--5-5-5-5--3-3-3-3--8-8-8-8----5-5-5-5---3-3-3-3---3-3-3-3-----
a--3-3-3-3--3-3-3-3--6-6-6-6----3-3-3-3---1-1-1-1---3-3-3-3-----
e-----------1-1-1-1---------------------------------1-1-1-1-----


C5        A#5   F5   x3             D#5    F5
Standing at a station clouds are spitting rain and snow
Standard observation clouds & people come and go
You gotta bet your life and retire to a farm
You gotta push your luck, 
F5        D#5   A#   x3             C#5    D#5
You gotta push your luck 


     C                F                 D#        
Wait we're swimming , we're swimming in a beautiful country
     C                A#                 F
Say how come you've not set a foot outside the door
     C                F                 D#        
Wait there is someone in a million as bounty
      C                A#                 F
Hey it could be, it could be you I'm looking for 

Riding on a brick road heading for a dream come true 
Many screenshots full of red & green & blue 
You gotta bet your life

Say how come you've not set a foot outside the door
Wait there is someone in a million as bounty
Hey it could be, it could be you I'm looking for
6Ld5REUUAAAAAA1PBEDya2BDGnf5rYKeKnmYm4Cz
043cb1178e196b807c2e998659ca96f5