Liviu Guță - De ce ma minti (Heavy version)

intro(clean)/solo(distorsiune)
E||-----7-------7-------4--7--4--|--0--4-----4-------6--4--|
B||--9---------------------------|-------------------------|
G||------------------------------|-------------------------|
D||------------------------------|-------------------------|
A||------------------------------|-------------------------|
E||------------------------------|-------------------------|
  
--2--6-----6--------6-----|-------------------7--6--|
-----------------7-----7--|-----7-----7-------------|
--------------------------|--8----------------------|
--------------------------|-------------------------|
--------------------------|-------------------------|
--------------------------|-------------------------|
 
--4--7-------7-------4--7--4--|--0--4-----4-------6--4--|
------------------------------|-------------------------|
------------------------------|-------------------------|
------------------------------|-------------------------|
------------------------------|-------------------------|
------------------------------|-------------------------|
 
--2--6-----6--------6-----|-------------------7--6--|
-----------------7-----7--|-----7-----7-------------|
--------------------------|--8----------------------|
--------------------------|-------------------------|
--------------------------|-------------------------|
--------------------------|-------------------------|
  
--4--7-------7-------4--7--4--|--0--4-----4-------6--4--|
------------------------------|-------------------------|
------------------------------|-------------------------|
------------------------------|-------------------------|
------------------------------|-------------------------|
------------------------------|-------------------------|
    
--2--6-----6--------6-----|-------------------7--6--|
-----------------7-----7--|-----7-----7-------------|
--------------------------|--8----------------------|
--------------------------|-------------------------|
--------------------------|-------------------------|
--------------------------|-------------------------|
  
--4--7-------7-------4--7--4--|--0--4-----4-------6--4--|
------------------------------|-------------------------|
------------------------------|-------------------------|
------------------------------|-------------------------|
------------------------------|-------------------------|
------------------------------|-------------------------|
                      
--2--6-----6--------6-----|-------------------7--6--|
-----------------7-----7--|-----7-----7-------------|
--------------------------|--8----------------------|
--------------------------|-------------------------|
--------------------------|-------------------------|
--------------------------|-------------------------|


Dupa acordurile sunt
e|------------------------------------   
B|------------------------------------    
G|------------------------------------   Cu distorsiune 
D|--7----3----5----11-----------------       
A|--7----3----5----11-----------------     
E|--5----1----3----8------------------
6Ld5REUUAAAAAA1PBEDya2BDGnf5rYKeKnmYm4Cz
c73d980bed989860fa53f71992f50512