Luna Amară - Asfalt

Chitara trebuie acordata in Drop D, adica E (Mi) gros sa fie cu un ton mai jos, in D (Re)

P.M.=palm mute
b= bend

Intro si tema principala a piesei care se repeta de f multe ori


E||-------------------------------------------------------------------------|
B||-------------------------------------------------------------------------|
G||-------------------------------------------------------------------------|
D||--------0-----0-----0-----0-----0--------0-----0-----------0--------0----|
A||------3-----3-----3-----3-----3--------3-----3----3------3--------3------|
D||----0-----0-----0-----0-----0------0-3-----3--------3--2------2-1-----1--|

                        
E||---------------------------------|
B||---------------------------------|
G||---------------------------------|
D||---0---3---2---0-------------0---| 
A||---0---3---2---0-----0-0-0-0-0---|
D||---0---3---1---0-----0-0-0-0-0---|
                       |  P.M  |

Aici este partea cu "Ia-mi tot ce mi-ai dat.Ia-mi tot ce-am visat" etc.


E||----------------------------|--------------------------------------|
B||----------------------------|--------------------------------------|
G||------------4b--------------|--------------------------------------|
D||----2-2-2-2-------------5b--|---2-------2---------4-------5--------|
A||----0-0-0-0-----3-3-3-3-----|---0-0-0-0-0-0-0-0---2-0-0-0-3-0-0-0--|
D||----------------3-3-3-3-----|--------------------------------------|
   <--------de 3 ori---------->

E||----------------------------|-------------------------|
B||----------------------------|-------------------------|
G||------------4b--------------|-------------------------|
D||----2-2-2-2-------------5b--|-------------------------|
A||----0-0-0-0-----3-3-3-3-----|---1--2--3--4--5--6--7---|
D||----------------3-3-3-3-----|---1--2--3--4--5--6--7---|
   <--------de 3 ori---------->

la sfarsit, la partea cu "N-ai sa zbori.Ai sa mori." se repete acordurile de mai jos

E||---------------|
B||---------------|
G||---------------|
D||---7---5---3---| 
A||---7---5---3---|
D||---7---5---3---|

Mai sunt si alte parti in melodie, dar in general mici variatii la ce e mai sus.