Luna Amară - Ciudat

  • (1 voturi)
  • Contribuție:  micutzu
Rifful de baza e cel al lui trooper,adica:


E-------------------------------17---21---17----------------------------17-
B--------------------------19-------------------19--------19---21----------
G-------------------21--------------------------------18-------------------
D--------------19----------------------------------------------------------
A-------17-----------------------------------------------------------------
D--0-----------------------------------------------------------------------


E-------------------------------17---21---17-------------------------------
B--------------------------19-------------------19--------19---21------17--
G-------------------21--------------------------------18-------------------
D--------------19----------------------------------------------------------
A-------17-----------------------------------------------------------------
D--0-----------------------------------------------------------------------


Pe riffu asta mai e o chitara: 

     D               D_4
E ciudat sa-mi amintesc 
     D               D_4
Cum fugeam odata 
Lumea nu era la fel 
La fel de ciudata 

E ciudat sa nu mai fiu 
Plin de nepasare 
Lumea se va stinge-ncet 
Plina de uitare 

               C                    D   F  E  D#
                     Vine timpul tau
               C                    D   F  E  D#   D  F E D#

                     Vine randul tau
                   
                     
   D              D4
E ciudat cat de usor 
   D             D4
Am uitat sa spun 
Totul mi-e indiferent 
Poate sunt nebun 


               C                   D   F  E  D#              
                     Vine timpul tau
               C                   D   F  E  D#   D   F  E  D#
                     Vine randul tau
                   

 
D5     F5          C5
E ciudat sa-mi doresc 
           E5
Sa-ti vorbesc 
D5     F5          C5        E5
E ciudat sa nu fiu ca tine 
D5     F5          C5        E5
Nu crezi nu crezi nu crezi 
         D5
Ca esti ciudat 
      F5          C5        E5
Mai ciudat decat mine?!

    EADGBE
D  :xx0232
D_4:xx0234
D# :xx0343
E  :xx0454
F  :xx0565
C  :032010
D5 :x56655
F5 :x8101088
C5 :x35533
E5 :x79977
  • kcobain1992
    25 octombrie 2009 18:20
    vin eu cu o corectura: progresia de pe ultima parte este D A C G, nu D F C E