Luna Amară - Dizident (Guitar Pro)

Nu este tocmai perfecta transpunerea, dar suna destul de bine si respecta notele 
originale in cele mai multe parti.


E |-----------------------------------------------------------------------------
B |--10h---------11h------10-------------------------10h---------11h------10----
G |--------------------------------12-------------------------------------------
D |-----------------------------------------------------------------------------
A |-----------------------------------------------------------------------------
D |-----------------------------------------------------------------------------


--------------------------------------------------------------------------------
---------------------10h---------11h------10-------------------------10h--------
---12----------------------------------------------12---------------------------
--------------------------------------------------------------------------------
--------------------------------------------------------------------------------
--------------------------------------------------------------------------------


--------------------------------------------------------------------------------
-11h------10-------------------------10h---------11h------10--------------------
-------------------12----------------------------------------------12-----------
--------------------------------------------------------------------------------
--------------------------------------------------------------------------------
--------------------------------------------------------------------------------


--------------------------------------------------------------------------------
-----10h---------11h------10-------------------------10b------------------------
-----------------------------------12-------------------------------------------
--------------------------------------------------------------------------------
--------------------------------------------------------------------------------
--------------------------------------------------------------------------------


-----------------------|----------------------------------------------------|
-----------------------|----------------------------------------------------|
-----------------------|----------------------------------------------------|
-----------------------|----------------------------------------------------|
-----------------------|--0M----0M-0M----0M-0M-0M----0M-0M------------------|
-----------------------|--0M----0M-0M----0M-0M-0M----0M-0M------------------|


----------------------------------------------------|
----------------------------------------------------|
----------------------------------------------------|
----------------------------------------------------|
--8M----8M-8M----5M-5M-5M----5M-5M------------------|
--8M----8M-8M----5M-5M-5M----5M-5M------------------|


----------------------------------------------------|
----------------------------------------------------|
----------------------------------------------------|
----------------------------------------------------|
--12M12M12M12M12M12M12M12M12M---12M12M---12M12M-----|
--12M12M12M12M12M12M12M12M12M---12M12M---12M12M-----|


----------------------------------------------------|
----------------------------------------------------|
----------------------------------------------------|
----------------------------------------------------|
--8M----8M-8M----5M-5M-5M----5M-5M------------------|
--8M----8M-8M----5M-5M-5M----5M-5M------------------|


----------------------------------------------------|
----------------------------------------------------|
----------------------------------------------------|
----------------------------------------------------|
--0M-0M----0M-0M----0M-0M-0M----0M-0M---------------|
--0M-0M----0M-0M----0M-0M-0M----0M-0M---------------|


----------------------------------------------------|
----------------------------------------------------|
----------------------------------------------------|
----------------------------------------------------|
--8M----8M-8M----5M-5M-5M----5M-5M------------------|
--8M----8M-8M----5M-5M-5M----5M-5M------------------|


----------------------------------------------------|
----------------------------------------------------|
----------------------------------------------------|
----------------------------------------------------|
--12M12M12M12M12M12M12M12M12M---12M12M---12M12M-----|
--12M12M12M12M12M12M12M12M12M---12M12M---12M12M-----|


----------------------------------------------------|
----------------------------------------------------|
----------------------------------------------------|
----------------------------------------------------|
--8M----8M-8M----5M-5M-5M----5M-5M------------------|
--8M----8M-8M----5M-5M-5M----5M-5M------------------|


-------------------------------------------------|
-------------------------------------------------|
--0-----0--0-----0--0-----0-----0--0-----0-------|
--2-----3--3-----2--3-----3-----2--3-----3-------|
-------------------------------------------------|
-------------------------------------------------|


-------------------------------------------------|
-------------------------------------------------|
--0-----0--0-----0--0-----0-----0--0-----0-------|
--2-----3--3-----2--3-----3-----2--3-----3-------|
-------------------------------------------------|
-------------------------------------------------|


-------------------------------------------------|
-------------------------------------------------|
--0-----0--0-----0--0-----0-----0--0-----0-------|
--2-----3--3-----2--3-----3-----2--3-----3-------|
-------------------------------------------------|
-------------------------------------------------|


--------------------------------------------------------------------------------
--------------------------------------------------------------------------------
--------------------------------------------------------------------------------
--17-15-14-13-12-11-10----9-----8-----7-----6-----5-----4-----3-----2-----1-----
--------------------------------------------------------------------------------
--------------------------------------------------------------------------------


--------------------|-------------------------------------------------|
--------------------|-------------------------------------------------|
--------------------|--0-----0--0-----0--0-----0-----0--0-----0-------|
0-------------------|--2-----3--3-----2--3-----3-----2--3-----3-------|
--------------------|-------------------------------------------------|
--------------------|-------------------------------------------------|


-------------------------------------------------|
-------------------------------------------------|
--0-----0--0-----0--0-----0-----0--0-----0-------|
--2-----3--3-----2--3-----3-----2--3-----3-------|
-------------------------------------------------|
-------------------------------------------------|


-------------------------------------------------|
-------------------------------------------------|
--0-----0--0-----0--0-----0-----0--0-----0-------|
--2-----3--3-----2--3-----3-----2--3-----3-------|
-------------------------------------------------|
-------------------------------------------------|


--------------------------------------------------------------------------------
--------------------------------------------------------------------------------
--------------------------------------------------------------------------------
--17-15-14-13-12-11-10----9-----8-----7-----6-----5-----4-----3-----2-----1-----
--------------------------------------------------------------------------------
--------------------------------------------------------------------------------


--------------------||---|---||----|----|-------|----|----|----|----|----|----|
--------------------||---|---||----|----|-------|----|----|----|----|----|----|
--------------------||o--|--o||----|----|-------|----|----|----|----|----|----|
0-------------------||o--|--o||----|----|-------|----|----|----|----|----|----|
--------------------||---|---||----|----|-------|----|----|----|----|----|----|
--------------------||---|---||----|----|-------|----|----|----|----|----|----|


----|----|----|----|----|
----|----|----|----|----|
----|----|----|----|----|
----|----|----|----|----|
----|----|----|----|----|
----|----|----|----|----|


--------------------------------------------------------------------------------
--------------------------------------------------------------------------------
--------------------------------------------------------------------------------
--17-15-14-13-12-11-10----9-----8-----7-----6-----5-----4-----3-----2-----1-----
--------------------------------------------------------------------------------
--------------------------------------------------------------------------------


--------------------||---------------------------|---------------------------|||
--------------------||---------------------------|---------------------------|||
--------------------||o--------------------------|--------------------------o|||
0-------------------||o0--0-----0--0-----0-------|--3--3-----5--5-----5-----o|||
--------------------||-0--0-----0--0-----0-------|--3--3-----5--5-----5------|||
--------------------||-0--0-----0--0-----0-------|--3--3-----5--5-----5------|||


---|---||----|----|-------|----|----|----|-------|----||---|---||----|----|
---|---||----|----|-------|----|----|----|-------|----||---|---||----|----|
o--|--o||----|----|-------|----|----|----|-------|----||o--|--o||----|----|
o--|--o||----|----|-------|----|----|----|-------|----||o--|--o||----|----|
---|---||----|----|-------|----|----|----|-------|----||---|---||----|----|
---|---||----|----|-------|----|----|----|-------|----||---|---||----|----|


-------||---------------------------|---------------------------|||
-------||---------------------------|---------------------------|||
-------||o--------------------------|--------------------------o|||
--17---||o0--0-----0--0-----0-------|--3--3-----5--5-----5-----o|||
--17---||-0--0-----0--0-----0-------|--3--3-----5--5-----5------|||
--17---||-0--0-----0--0-----0-------|--3--3-----5--5-----5------|||


---------------------------|---------------------------|||---|---|||
---------------------------|---------------------------|||---|---|||
o--------------------------|--------------------------o|||o--|--o|||
o--------------------------|--------------------------o|||o--|--o|||
----------11-------10~-----|-----------9--------9------|||---|---|||
-11-11-11----11-11----11---|--9--9--9-----9--9-----8~--|||---|---|||


--------------------------------------------------------------------------------
--------------------------------------------------------------------------------
o-------------------------------------------------------------------------------
o0-----0--0--0-----0--0-----0--0-----0--0-----3-----3--3--3-----3--5-----5--5---
-0-----0--0--0-----0--0-----0--0-----0--0-----3-----3--3--3-----3--5-----5--5---
-0-----0--0--0-----0--0-----0--0-----0--0-----3-----3--3--3-----3--5-----5--5---


------------------|||---------------------------|---------------------------||
------------------|||---------------------------|---------------------------||
-----------------o|||o--------------------------|--------------------------o||
--5--5-----5--5--o|||o0--0-----0--0-----0-------|--3--3-----5--5-----5-----o||
--5--5-----5--5---|||-0--0-----0--0-----0-------|--3--3-----5--5-----5------||
--5--5-----5--5---|||-0--0-----0--0-----0-------|--3--3-----5--5-----5------||


-------|----||
-------|----||
-------|----||
--0----|----||
--0----|----||
--0----|----||