Luna Amară - Intunecare

//Artist: Luna amara
//Album: Loc Lipsa
//Piesa: Intunecare

INTRO
e|------------------------------------------------------------|
B|------------------------------------------------------------|
G|------------------------------------------------------------| (x10)
D|--3p0-0-3p0-0-0-0-0-0-0-0-3p0-0-3p0-0-0-0-0-0-0-0-----------|
A|------------------------------------------------------------|
D|------------------------------------------------------------|

e|---------------------------------------------------------------|
B|---------------------------------------------------------------|
G|-------------------------3-------------------------------------|(x2)
D|--------3--0----------3--3---------3-0--1--0-------------------|
A|--------3--0----------3--1---------3-0--1--0-------------------|
D|--5p4p0-3--0---5p4p0--3------5p4p0-3-0--1--0-------------------|


e|-------------------------------------|
B|-------------------------------------|
G|-------------------------------------|
D|--------3-0--------3-0---------------|(x2)
A|--------3-0--------3-0---------------|
D|--5p4p0-3-0--5p4p0-3-0---------------|

VERS1
Patriarhal/Spiritual/Imoral/Credinta ca si capital

Pacatosi/ De sus in jos/Ne-nchinam/Cat mai repede sa uitam
e|--------------------------------------------------|
B|--------------------------------------------------|
G|--------------------------------------------------|
D|--0-x-x-x-x-0-x-x-x-x-0-x-x-----------------------|(x8)
A|--------------------------------------------------|
D|--------------------------------------------------|

e|---------------------------------------|
B|---------------------------------------|
G|---------------------------------------|
D|--------3-0----------3-0---------------|(x4)
A|--------3-0----------3-0---------------|
D|--5p3p0-3-0----5p3p0-3-0---------------|

Vers2
Construim/Mantuim/Mituim/Ingerii ce n-o sa fim

Anticrist/Comunist/Teoctist/Te privim cu-n zambet trist/Cand spui:
e|--------------------------------------------------|
B|--------------------------------------------------|
G|--------------------------------------------------|(X8)
D|--0-x-x-x-x-0-x-x-x-x-0-x-x-----------------------|
A|--------------------------------------------------|
D|--------------------------------------------------|

REFREN
"Dumnezeu e al meu..! "/L-am castigat cand m-am rugat  
/"Dumnezeu e al meu..! "/L-am castigat cand m-am rugat
e|-----------------------------------------------------|
B|-----------------------------------------------------|
G|-----------------------------------------------------|
D|---3-3--2-2-2------------------------------------------|(X3)
A|---3-3--2-2-2---1-----1-----1--------------------------|
D|---3-3--2-2-2-----3-0---3-0---5-3-2~-------------------|

e|----------------------------|
B|----------------------------|
G|----------------------------|
D|--3-3--2-2-2--0-------------|
G|--3-3--2-2-2--0-------------|
D|--3-3--2-2-2--0-------------|

BRIDGE
e|-------------------------------------------------------------------|
B|-------------------------------------------------------------------|
G|------------------------3------------------------------------------|(x4)
D|--------3-0-----------3-3---------3-0--1--0------------------------|
A|--------3-0-----------3-1---------3-0--1--0------------------------|
D|--5p4p0-3-0----5p4p0--3-----5p3p0-3-0--1--0------------------------|

Solo

e|---------------------------------|
B|---------------------------------|
G|---------------------------------|(x4)
D|---------------------------------|
A|-------------0M------------0M----|
D|--0M-3M-5M-6M---0M-3M-5M-6M------|

e|---------------------------------|
B|---------------------------------|
G|---------------------------------|(x4)
D|---------------------------------|
A|---------0---------0-------------|
D|--0-3-5-6---0-3-5-6--------------|

REFREN
"Dumnezeu e al meu..! "/L-am castigat cand m-am rugat  
/"Dumnezeu e al meu..! "/L-am castigat cand m-am rugat
e|-----------------------------------------------------|
B|-----------------------------------------------------|
G|-----------------------------------------------------|
D|---3-3--2-2-2----------------------------------------|(X3)
A|---3-3--2-2-2---1-----1-----1------------------------|
D|---3-3--2-2-2-----3-0---3-0---5-3-2~-----------------|

e|----------------------------|
B|----------------------------|
G|----------------------------|
D|--3-3--2-2-2--0-------------|
G|--3-3--2-2-2--0-------------|
D|--3-3--2-2-2--0-------------|

e|---------------------------------------|
B|---------------------------------------|
G|---------------------------------------|
D|--------3-0--------3-0---------------|
A|--------3-0--------3-0---------------|
D|--5p3p0-3-0--5p3p0-3-0---------------|
  • vladalmond
    2 martie 2016 21:53
    Cam multe greseli. La inceput sunt si pull offs de pe tasta 6, iar acel 5p4p0 este defapt 6p3p0. La partea cu Dumnezeu e al meu acordul dupa 333 este 232, nu 222,