Luna Amară - Mara (acustic)

Luna Amara - Mara (acustic)


Aceasta este o versiune inca in lucru. Cine are una mai buna as vrea sa 
vad si eu. Iata solo-urile mi-ar placea sa le am, dar nu le am:-).

Intro: 

        Em7
e|--------------------------------------------------------------------
B|-----------3-----------3-------3------------3-----------3-------3---
G|-------0-----------0-------0------------0-----------0-------0-------
D|--------------------------------------------------------------------
A|--------------------------------------------------------------------
E|---0-----------0--------------------0-----------0-------------------


	Cadd9
e|--------------------------------------------------------------------
B|-----------3-----------3-------3------------3-----------3-------3---
G|-------0-----------0-------0------------0-----------0-------0-------
D|--------------------------------------------------------------------
A|---3-----------3--------------------3-----------3-------------------
E|--------------------------------------------------------------------



Mai departe se ciupeste in acelasi mod cum e aratat mai sus.


Em7			    Cadd9
     Cu tot ce n-ai sa-mi spui

Em7			    Cadd9
     Si tot ce n-ai sa-mi dai

		  Em7
	Am pierdut

	   	  Cadd9
	N-am crezut ca vei pleca curand

      Em7		  Cadd9
	In nor de fum arzand

Cadd9			 Em7
     Si n-ai sa fii a mea

Cadd9
     O zi macar de-ai sta

Em7
     Cu mine in gand

Cadd9
     Si unde vei pleca

Em7     
     Din lumea mea

Cadd9                 Em7
     Amara lumea mea



si tot ce n-ai de spus
e-un gand ce-a fost sa fie dus
nici macar n-ai stat s-asculti ce am de spus

as vrea sa fii a mea
o zi macar de-ai sta cu mine-n gand
si unde vei pleca din lumea mea,,,





Bridge:

G(III) Bm Cadd9


G(III) 
si ma faci sa plang , sa rad,

		     Bm
ca si cand la tine-n gand 

Cadd9
as fi eu

G(III)
dar tu pari a altora

		Bm
niciodata doar a mea...

Cadd9
a nimanui...


    Si n-ai sa fii a mea
     O zi macar de-ai sta
     Cu mine in gand
     Si unde vei pleca
     Din lumea mea
     Amara lumea mea


Aproximativ asa! Spor la zdranganit!
  • xX_RD_Xx
    9 ianuarie 2011 16:46
    Suna bine. Voi face un cover in curand. Multumesc. :)