Luna Amară - Pietre in alb

  • (1 voturi)
  • Contribuție:  Cobra_2o1o
  • Ultima actualizare: 18.07.2016
Tuning: D A D G B E 

Intro

E|----------------------------------------------------------------------
B|----------------------------------------------------------------------
G|----------------------------------------------------------------------
D|-------4-5-5/7b---------------8---------------------------------------  (x2)
A|--------------------------5------5--------------10------10------------
D|--0--------------------5---------------------8-------8-------8--------


E|------------------------------------x-------6-3-----------------------
B|------------------------------------8-----------3---------------------
G|---------------------5--------------7--------------------------------- 
D|-------0-4-5--5/7-------7-5-4-0-----5---------------------------------  (x2)
A|------------------------------------x---------------------------------
D|--0---------------------------------x---------------------------------


========================================================================


(Se canta peste tot in afara de refren)
E|------------------------------------x-------6-3-----------------------
B|------------------------------------8-----------3---------------------
G|---------------------5--------------7--------------------------------- 
D|-------0-4-5--5/7-------7-5-4-0-----5---------------------------------
A|------------------------------------x---------------------------------
D|--0---------------------------------x---------------------------------


Vreau s-aprind
Ultimul meu mal cand nu mai simt
Si luna-n ape negre ar tacea
Sa ma sting
Dus de valuri verzi in larg de mari
Singur cum eram cand am venit. 
Am sa trec
Ca si cum pe albe foi inchizi un cerc
Si mana ta deprinde alt contur
Pot sa iert
Sau pot sa mint ca pot sa iert cumva
Cand tot ce-a fost al meu va fi al altcuiva


D               Bb
Toate pietrele albe
C       D
Aduna uitare
            Bb     C          D
Si tot ce e viu se stinge si moare
         Bb     C     D
Neagra uitare acopera urma
              Bb  C        D
Esti sange si lut viata ta-i una


Ai putea
Sa te minti ca voi fi tot aici cumva
Dar stim atat de bine sa uitam. 
Daca vrei
Doua pietre-n alb s-arunci nu sa le iei
In gandul tau sa nu mai fiu nimic.
 

D               Bb
Toate pietrele albe
C       D
Aduna uitare
            Bb     C          D
Si tot ce e viu se stinge si moare
         Bb     C     D
Neagra uitare acopera urma
              Bb  C        D
Esti sange si lut viata ta-i una