Mihai Mărgineanu - Zavalaidanga

  • (7 voturi)
  • Contribuție:  generalDona
  • Ultima actualizare: 25.10.2008
primu riff e pentru refren
 
                 G               C      G    Am   G 
  |-----3-----3-------3----3------0-----3-----0---3-----
  |-----0-----0-------0----0------1-----0-----1---3-----
  |-------------------------------0-----0-----2---0-----
  |--------0-------------0--------2-----0-----2---0-----
  |--2--------------2-----------3----2------0-----2-----
  |-----------------------------------------------3-----

    al doilea riff ( pe care-l folosesc pt vers) e cam aceasi chestie, 
cu o mica diferenta
      
                 G                  C     Am    G 
  |-----3----3-------3----3-------0----0----0-------
  |-----0----0-------0----0-------1----1----1-------
  |-------------------------------0----0----2------- si tot asa
  |--------0------------0---------------------------
  |--2------------2------------3-----2----0---------
  |---------------------------------------------3---

    
    E putin schimbata versiunea asta fata de melodia originala, in sensul ca
 la refren am adaugat 2 acorduri. In melodia originala la refren este doar G 
si C. 
. Ritmul il prindeti usor din melodie, succes!
6Ld5REUUAAAAAA1PBEDya2BDGnf5rYKeKnmYm4Cz
148acac67535ddab24163f9dc6e24e70