Nicu Alifantis - Rar

  • Contribuție:  slatina
  • Ultima actualizare: 14.02.2013
Ciupitura este relativ simpla:
Intro:
C                               Am             
E--------------0------------0----------0-----|
B----------1-----1----1-------1----1-----1---|
G------------0-----0----0-------0----2-----2-|
D--------------------------------------------|
A----0-2-3-----------3------------0----------|
E--3-----------3-----------3-----------0-----|


            Dm
|---------0----------------1--------------1-----
|----1------1------3---------3------3-------3---
|------2------2------2---------2------2-------2-
|----------------0----------------0-------------
|-0--------------------0-----------------0------
|--------0--------------------------------------


 E             E7         (bis)   Am
E---------0-------------0----|------------5--------------5-----|
B----0------0-----0-------0--|------5-------5------5-------5---|
G------1------1-----1-------1|--------5-------5------5-------5-|
D--2------------0------------|----7-----6--------7-----6-------|
A--------2------------2------|---------------------------------|
E----------------------------|---------------------------------|

Am
Singur, singur, singur, singur
               Dm
Intr-un han, departe
G7           C
Doarme si hangiul,
               E7
Strazile-s desarte,


          Am
Singur, singur

	Refren: C Am Dm E E7 (intro)

Ploua, ploua, ploua, ploua
Vreme de betie,
Si s-asculti, s-asculti pustiul
Ce melancolie,
Ploua, ploua

Nimeni, nimeni, nimeni, nimeni,
Cu atat mai bine,
Si de-atata, de-atata vreme
Nu stie de mine
Nimeni, nimeni

Singur, singur, singur, singur
Intr-un han, departe
Doarme si hangiul,
Strazile-s desarte,
Singur, singur