O-zone - De ce plang chitarele (+solo)

Din respect pentru Mihai Dolgan am folosit versurile originale.

Am           Dm
De ce plâng chitarele
E7           Am
Ştiu doar felinarele
Am           Dm
Strunele amarele
E7           Am
Ce oare au pierdut?

Fete ca lalele
Cu ochi mari ca stelele
Vin încet ca ielele
Şi se opresc tăcut
	
	Refren:


        E
	Pe străzi pluteste 

	Doar dragostea
	Am
	Ea cheamă, cheamă 

	Pe cineva
	G
	Ea cheamă, cheamă�

	Pe cineva
	C                 E
	Spre-a fericirii stea

Plâng in noapte strunele
Strunele nebunele
Tu iubire spune-le 
Ce-a fost nu s-a pierdut

	Refren.

Plâng in noapte strunele
Strunele nebunele
Tu iubire spune-le 
Ce-a fost nu s-a pierdut
Ce-a fost nu s-a pierdut
Ce-a fost nu s-a pierdut 


Din acesta puteti face un back up la refren cu o chitara electrica pe clean

E||-----------------------|-------------------------|-----------------------|
B||--1----0---------0--1--|--3--1-------------------|--0-----------------0--|
G||------------2----------|----------2--------------|-------2----1----2-----|
D||-----------------------|-------------------------|-----------------------|
A||-----------------------|-------------------------|-----------------------|
E||-----------------------|-------------------------|-----------------------|

----------------------|----------------------|-------------------------|
--1--0----------------|--1----0---------1----|--3--1-------------------|
----------2-----------|------------2---------|----------2--------------|
----------------------|----------------------|-------------------------|
----------------------|----------------------|-------------------------|
----------------------|----------------------|-------------------------|

---------------------------|----------------------|-----------------------|
----------------0----------|----------------------|--1----0---------0--1--|
--1-------1--2-----1----2--|----------------------|------------2----------|
---------------------------|----------------------|-----------------------|
---------------------------|----------------------|-----------------------|
---------------------------|----------------------|-----------------------|

-------------------------|-----------------------|----------------------|
--3--1-------------------|--0-----------------0--|--1--0----------------|
----------2--------------|-------2----1----2-----|----------2-----------|
-------------------------|-----------------------|----------------------|
-------------------------|-----------------------|----------------------|
-------------------------|-----------------------|----------------------|

----------------------|-------------------------|---------------------------|
--1----0---------1----|--3--1-------------------|----------------0----------|
------------2---------|----------2--------------|--1-------1--2-----1----2--|
----------------------|-------------------------|---------------------------|
----------------------|-------------------------|---------------------------|
----------------------|-------------------------|---------------------------|


iar la solo puteti folosi dupa refren ceva la gen, care-s aceleasi 
note ca la refren dar mai sus. Have fun


E||----------------------------|----------------|
B||--13----12----------12--13--|--15--13--------|
G||--------------14------------|------------14--|
D||----------------------------|----------------|
A||----------------------------|----------------|
E||----------------------------|----------------|

----------------------------|-------------------------|
--12--------------------13--|--13--12-----------------|
--------14----13----14------|------------14-----------|
----------------------------|-------------------------|
----------------------------|-------------------------|
----------------------------|-------------------------|

--------------------------|----------------------------|
--13----12----------13----|--15--13--------------------|
--------------14----------|------------14--------------|
--------------------------|----------------------------|
--------------------------|----------------------------|
--------------------------|----------------------------|

---------------------------------|----------------------|
-------------------12------------|----------------------|
--13-------13--14------13----14--|----------------------|
---------------------------------|----------------------|
---------------------------------|----------------------|
---------------------------------|----------------------|

----------------------------|----------------------------|
--13----12----------12--13--|--15--13--------------------|
--------------14------------|------------14--------------|
----------------------------|----------------------------|
----------------------------|----------------------------|
----------------------------|----------------------------|

----------------------------|-------------------------|
--12--------------------12--|--13--12-----------------|
--------14----13----14------|------------14-----------|
----------------------------|-------------------------|
----------------------------|-------------------------|
----------------------------|-------------------------|

--------------------------|----------------------------|
--13----12----------13----|--15--13--------------------|
--------------14----------|------------14--------------|
--------------------------|----------------------------|
--------------------------|----------------------------|
--------------------------|----------------------------|

---------------------------------|
-------L-----------12------------|
--13-------13--14------13----14--|
---------------------------------|
---------------------------------|
---------------------------------|

Have fun people. 
O-zone.go.ro

Transpunerile de pe acest site reprezintă viziunea personală a utilizatorilor asupra pieselor.
0c131b8ad99c3fd90ec89ff5f9d1853b
f7e9d1d2-ebba-44ba-8198-e810bddf71a6