Omul cu Șobolani - Oda (in Piata Romana)

  • (1 voturi)
  • Contribuție:  anonim870
Oda (In Piata Romana)

Interpreteaza : Omul Cu Sobolani
Album         : Ne Punem In Cap
Transpunere   : Alex90s@yahoo.com

*Intro(Prima chitara):

e|-10--10--10--10---9--12--12--12--12---9--10--10--10--10---9--12--12--12--12---9-|
B|-10--10--10--10--10--10--10--10--10--10--10--10--10--10--10--10--10--10--10--10-|
G|--------------------------------------------------------------------------------|
D|--------------------------------------------------------------------------------|
A|--------------------------------------------------------------------------------|
E|--------------------------------------------------------------------------------|

*Dupa aceea intra a doua chitara cam asa:

e|----------------|
B|-3--------------|
G|-2--------------|
D|-0~--2~--4-4----|
A|-0~--0~--2-2----|
E|----------------|


*In timpul strofei faceti tot aceleasi acorduri de mai sus,doar ca puteti sa le mutati 
si ritmul este altul


*Refren:


e|--------|
B|--------|
G|--7-----|    Am pus doar acordurile,ascultati piesa ca sa prindeti ritmul
D|--7--7--|
A|--5--7--|
E|-----5--|


*Iar dupa refren o chitara face din nou:


e|-10--10--10--10---9--12--12--12--12---9--10--10--10--10---9--12--12--12--12---9-|
B|-10--10--10--10--10--10--10--10--10--10--10--10--10--10--10--10--10--10--10--10-|
G|--------------------------------------------------------------------------------|
D|--------------------------------------------------------------------------------|
A|--------------------------------------------------------------------------------|
E|--------------------------------------------------------------------------------|

*Iar chitara a doua:

e|----------------|
B|-2--------------|
G|-3--------------|
D|-0~--2~--4-4----|
A|-0~--0~--2-2----|
E|----------------|


*La partea "Si tot astept sa mi se intample ceva" aceleasi acorduri de mai 
sus


*Iar la "La,la,la" tot aceleasi acorduri doar cu alt ritm
6Ld5REUUAAAAAA1PBEDya2BDGnf5rYKeKnmYm4Cz
69a70c64479e3a98c7ccb5f96e5af106