Omul cu Șobolani - Stanga

  • (1 voturi)
  • Contribuție:  anonime
Intro 2x
                                                                                           2x|
                             2x |                                                            |
E||-----------------------------|-----------------------------|--------4-------------6-------|
B||---------------3b4-----------|---------1-----3b4-----------|-----------4-------------6----|
G||---------0----------1--------|------2-----2-------2--------|-----5-------------7----------|
D||------2-----2----------0-----|---3-------------------3-----|--6-------------8-------------|
A||---3-------------------------|-----------------------------|------------------------------|
E||-----------------------------|-----------------------------|------------------------------|
 
*** Urmeaza o mica parte de solo, care se va repeta si intre strofe:
 
E||----3----1----4----6-------|
B||----3----1----4----6-------|
G||----5----2----5----7-------|
D||----5----3----6----8-------|
A||----3----3----6----8-------|
E||----3----1----4----6-------|
 
*** Pe durata strofelor se canta aceleasi acorduri, doar efectul e schimbat, 
iar o a doua chitara
se joca pe aceleasi acorduri dar cu alt efect (partea asta va lasa libera imaginatia, 
daca vreti 
sa fiti cat mai fideli melodiei ascultati-o mai bine si vedeti voi cum se canta)
 
*** Acordurile de mai sus se schimba totusi pe parcursul melodiei, cu o mica variatie,
 incepand 
de la versul "ma scutur si tremur, ratiunea mi-e goala...." asa:
 
E||---3----6----8-----11---------|
B||---3----6----8-----11---------|
G||---5----8----10----13---------|
D||---5----8----10----13---------|
A||---3----6----8-----11---------|
E||---3----6----8-----11---------|
 
*** Parte intermediara ("ma trezesc buimac...") foloseste trei acorduri, dar voi incerca sa fiu 
mai precis acum:
 
*** La inceput e o mica portiune de bas, care pe chitara ar suna cam asa
 
E||------------------------------------------------------------|
B||------------------------------------------------------------|
G||------------------------------------------------------------|
D||------------------------------------------------------------|
A||---3---3---3-2--2--2h3--0-----0-2--3---3---3-2--2--2h3--0---|
E||------------------------------------------------------------|
 
*** Chitara intra cu un slide:
E||--------------|
B||--------------|
G||--------------|
D||--------------|
A||---s2----5----|
E||--------------|
 
*** Apoi urmeaza "joaca" pe corzi pe care pot doar sa o aproximez asa:
 
E||--------------------------------------0---------------------|
B||--------------------------1-----1---------1--------1-----1--|
G||----0---0----0-----0---2-----2-----2----2-------2-----2-----|
D||-----------------0------------------------------------------|
A||--3---3---3----2--------------------------------------------|
E||------------------------------------------------------------|
 
 
*** Sunt note cantate de doua ori, sau sunt note intermediare..... 
depinde de cum vreti sa 
cantati, daca vreti sa sune ca in original, trebuie sa ascultati
 mai bine partea asta, eu am dat 
doar notele principale.
 
*** Apoi se intra cu un alt efect pe acordurile:
 
E||----0-----3-----0--------|
B||----1-----0-----1--------|
G||----0-----0-----2--------|
D||----2-----0-----2--------|
A||----3-----2-----0--------|
E||----0-----3-----0--------|
 
*** Iar in final, in forta...
 
E||----3----1----4----6-------|
B||----3----1----4----6-------|
G||----5----2----5----7-------|
D||----5----3----6----8-------|
A||----3----3----6----8-------|
E||----3----1----4----6-------|
6Ld5REUUAAAAAA1PBEDya2BDGnf5rYKeKnmYm4Cz
2a4d895d29a0455b9e50b4ee2e1db7cc