Pasărea Colibri - La portile orientului

  • (1 voturi)
  • Contribuție:  sika
Intro:

  
e----------------------------------------------------------------
B------------------------3--------------------------------------
G------------------------2---------------------------------
D--2-2---2---2-----2-2---0--------------------------------------
A--0-0---0---0-----0-0------------------------------------------
E------3---3---3-------3--------------------------------------


1. 
  A
   La portile Orientului

   Se zbate omul veac de veac
  D
   Desi i-ar fi placut si lui
         A                   Intro     
   Sa-si duca viata in hamac.


2. Aici mereu fara ragaz
   Isi fac minunile de cap
   Se tine omul de necaz
   De parca ar fi lipit cu pac .

3. Mereu orice s-ar intampla
   Intre o votca si un discurs
   Nimicul nu va pregeta
   Sa scartaie desi e uns.

Refren:
    G
    Scapand de iarna si de ger
       D
    Pe-aici tot omul atat ar vrea
       G
    Sa fie doar o zi boier
      D
    Fumand trabuc si band cafea.
       A
    In rest cu tot ce ne e dat
       E              A
    Ne aibe Domnu' in grija lui
         A          
    Caci numai El ne-a semanat
       G        E
    La portile Orientului.

(ATENTIE, se schimba gama!)

e------------------------3--------------------------------------   
B------------------------3--------------------------------------
G--2-2---2---2-----2-2---0--------------------------------------
D--0-0---0---0-----0-0------------------------------------------
A------3---3---3-------3--------------------------------------
E---------------------------------------------------------------


      D   
4. Pe aici, O! ce bizar parfum,

   Tot balul duce la scandal
      G
   Si tot scandalul nu stiu cum
      D
   Se termina mereu cu bal.

   5. Niciunde nu vei mai afla
   Atati profeti de iarmaroc
   Si-mbratisari de puslama
   Si-atata zambet echivoc.

(Inapoi in A, deci ca la primele 3 strofe)


6. Pe cand minunile se rup
   Pe omul trist si inselat
   Tot victima e bietu' lup
   Si mielul vesnic vinovat.

7. In umbra noptii de pripas
   Se vad baietii de cartier
   Iar Domnul coborand din cer
   Ramane fara bani sï ceas.

Have fun!
ad45daff20f2dec4de6ca6cc09dfd592