Pavel Stratan - Luluta (solo)

Am:

E|------------------------------------------------------
H|------------------------------------------------------
G|------------------------------------------------------
D|------------------------------------------------------
A|---5-5--5-7-8-7-7h8p7-7--5-5---5-7-8-7-7h8p7-7--------
E|------------------------------------------------8-8---


E|------------------------------------------------------
H|------------------------------------------------------
G|------------------------------------------------------
D|------------------------5-----------------------------
A|--5-7-8-----5-7-8-8---8---8--7-7h8p7-7--5-5-----------
E|----------8-------------------------------------------