Phoenix - Fata Verde (intro complet)

e|--------------------------------------------------------|
B|--------------------------------------------------------|
G|----4-2-0-------------------0-4-2-0-2-4-0-2-4-2-0-------|
D|--2-------4-0-2-2-2-0-0h2h4-----------------------4-2---|  x4
A|--------------------------------------------------------|
E|--------------------------------------------------------|


e|-------------------------------------------------------------------------|
B|-------------------------------------------------------------------------|
G|--4-0-2---------------4-0-2-------------4-0-2---------------4-2----------|
D|--------4h5r4-2-0-2-2-------4h5r4-2-0-2-------4h5r4-2-0-2-2-----4-2-0-2--|  x2
A|-------------------------------------------------------------------------|
E|-------------------------------------------------------------------------|

Transpunerile de pe acest site reprezintă viziunea personală a utilizatorilor asupra pieselor.
8a40fd91e87d9842324b2f5dbe3af1df
f7e9d1d2-ebba-44ba-8198-e810bddf71a6