Phoenix - In Umbra Marelui URSS (intro - easy version)

Nu este varianta originala,este prelucratasi mai accesibila pt toti... 
                                         pt ca este mult mai usoara...  
                                                                        
                                                                        
E|-3--2/3-2-5-0---------------------|---------------------------|       
B|-3--3-------0---------------------|---------------------------|      
G|-0--2-------0---------------------|--------0------------0-----|       
D|-0--0-------2---------------------|----2-------------2--------|   
A|-2--0-------2----0-2-3--3-2-0-----|--2---2---2-2-3-0--0---3-2-|       
E|-3----------0--3--------------3-2-|0--------------------------|      
                                                                        
 |-----------------------------|                                        
 |----------------1------------| <  aces 0 1 nu este obligatoriu        
 |------0-------0--------------| <  daca nu poti...nul face...          
 |---2-------------------------|                                       
 |-0--0---0-2-3----3-2-0-------|                                      
 |-----------------------3-2-0-|
6Ld5REUUAAAAAA1PBEDya2BDGnf5rYKeKnmYm4Cz
2a351c5bd0fc07e93d9ed43faf6a0293