Phoenix - Negru Voda

1st part (intro):

e|----------------------------------------------------------------------------|
B|----------------------------------------------------------------------------|
G|----------------------------------------------------------------------------|
D|--2-------2----------2-5-5-----2--------2--------2-----------------------2--|
A|-3-3-0-0-3-3-0-0--3-5-------3-5-3-3-0--3-3-0-0--3-3-0-0--3-5--------3-5-3-0-|
E|----------------------------------------------------------------------------|

2nd part:
e|-----------------------------------------------------------------|
B|-----------------------------------------------------------------|
G|----5-------5-------5-5-7-8-7-5-------5-------5-------5----------|
D|-5-7-7-5-5-7-7-5-5-7-7---------7-5-5-7-7-5-5-7-7-5-5-7-7-5-5-7-7-|
A|--------7-------7-----------------7-------7-------7-------7------|
E|-----------------------------------------------------------------|

The part above is payed 4 times. The first 2 times it's played with palm muted and slower, 
and the next 2 times faster without palm muted.

3rd part:
e|---------------------------------------------------------------------|
B|---------------------------------------------------------------------|
G|-8-7-5-7-5-5---------------------8-7-5--8-7-5-7-5-5------------------|
D|----------7-7-5-7-5-5---------5-5----------------7-7-5-7-5-5---------|
A|-------------------7-7-5-7-5-7-7--------------------------7-7-5-5-7--|
E|---------------------------------------------------------------8---5-|

e|--------------------------------------------------6-5-3-11-10-8-8-7-5-----------|
B|---------------------------------------------8-7-6-------------------8-7-5------|
G|-8-7-5-7-5-5---------------------8-7-5--8-7-5------------------------------8-7-5|
D|----------7-7-5-7-5-5---------5-5-----------------------------------------------7
A|-------------------7-7-5-7-5-7-7------------------------------------------------|
E|--------------------------------------------------------------------------------|