Phoenix - Pasărea Calandrinon

INTRO:
4x
   B5                           B5        A5      D5   E5 
e|-----------------|------------------|--------------------| 
B|-----------------|------------------|--------------------| 
G|-----------------|------------------|--------------------| 
D|----7-9-7---9--9-|----7-9-7----9--9-|-9--7--7----7-7--9--| 
A|-7-9-----9--9--9-|-7-9-----9---9--9-|-9--7--7----5-5--7--| 
E|------------7--7-|-------------7--7-|-7--5--5----5-5--7--| 

Bm   A        D5     E5            Bm
Vine fără s-o chemi, i-auzi bate-n geam.
Bm    A         D5    E5            Bm
Intră fără să-i ceri, mândră şi de neam.
Vede prin carnea ta ca printr-un geam.
Albă Calandrinon, cu ochi de mărgean.
                            =>     INTRO 2x..(se incepe in locul ultimului acord, respectiv Bm)

Sveltă fără cuvânt, la biet patul tău,
În ochi privindu-te cu drept ochiul său
Astfel fiind mântuit de ăl ceasul rău.
Fiară cu dinţi de fier, zimţi de fierăstrău.

BRIDGE:
4x

e|-----------------------|------------------------|
B|------------7----------|------------7-----------|
G|----6~7-6-7---9-7-6----|----6~7-6-7---9-7-6-----|
D|-9-9---------------9~7-|-9-9---------------7~9--|
A|-----------------------|------------------------|
E|-----------------------|------------------------|

Pleacă şi-n urma ei, foi de trandafiri.
Doctor făr' de arginţi, straniu musafir.
Albă Calandrinon, cu ochi de safir.
Albă Calandrinon, cu ochi de safir.

BRIDGE 2x:

B5    A5       B5    D5  E5    F#5
Soră, pasăre-n alb, ......psihi-mu,
B5 A5   D5(2) Db5(2) B5
Harnic, dar - nic    duh,
B5      A5       B5    D5   E5     F#5
Patemi, boală şi chin,       ia-le tu...
B5 A5  D5(2) Db5(2) B5
Du-le  în    văz - duh!


*(2)* -acord tinut in rasturnare:
    D5  Db5 
e|----------||
B|----------||
G|----------||
D|--12--11--||
A|--12--11--||
E|--10--9---||
  • Loverman
    5 mai 2008 21:31
    melodia ei o canta cu acordurile pline nu diminuari (5) cum am pus eu in tab... dar cred ca ajuta la voce cantata asa din si...(deci acordurile sunt Bm, A, D si E, iar finalul e in power chords cum e si scris
    Varianta veche, cu intro pe pian ( cea din la ) era cu (5)