Phoenix - Stiu ca ma iubesti

Este prima melodie inregistrata de Phoenix la radio,
cantata cu Moni Bordeianu. Este o melodie simpla si frumoasa. Enjoy!

             C/G                       G
1. Stiu ca iubesti si tu cu-acelasi dor aprins
             C/G             G
   Ca flacara iubirii inca nu s-a stins
           F            C       Am
   Cand imi spui c-ai sa ma parasesti
           F            G         C
   Nu te cred,fiindca stiu ca ma iubesti

2. repeta strofa
 
SOLO C, G

          F            C       Am
3.   Cand imi spui c-ai sa ma parasesti
           F            G         C
     Nu te cred,fiindca stiu ca ma iubesti

     
4. Stiu ca iubesti si tu cu-acelasi dor aprins
   Ca flacara iubirii inca nu s-a stins
   Cand imi spui c-ai sa ma parasesti
   Nu te cred,fiindca stiu ca ma iubesti x3

C/G - C cu baza in G (degetul mic pe prima coarda tasta 3)
Ciupitura e simpla,numai pe primele 2 versuri,ascultati melodia si va edificati :)
  • vasib
    2 decembrie 2009 21:27
    Pun eu ciupitura pe primele 2 versuri:

    C(III)
    e|-------3----------3------|
    B|---------5----------5----|
    G|---5-----------5---------|
    D|-5-----------5-----------|
    A|-------------------------|
    E|-------------------------|


    G(III)
    e|-------3----------3------|
    B|---------3----------3----|
    G|---4-----------4---------|
    D|-5-----------5-----------|
    A|-------------------------|
    E|-------------------------|
6Ld5REUUAAAAAA1PBEDya2BDGnf5rYKeKnmYm4Cz
43c69258b1708a3fac4e71f01e48f16c