Phoenix - Te intreb pe tine Soare

  • (9 voturi)
  • Contribuție:  anonim166
Intro:
E|--3--3---2--0--2--3--3---5--5--|
B|--3--3---3--3--3--3--3---------|
G|--2--2---2--0--2--2--2---------| De 4 doi
D|---------0-----0---------------|
A|-------------------------------|
E|-------------------------------|

E|--5--5--4--0--4--5--5--7--7--|
B|--5--5--5--5--5--5--5--------|
G|--4--4--4--0--4--4--4--------|
D|-----------------------------| De 2 ori
A|-----------------------------|
E|-----------------------------|

 G     D    A7
Aaaa,aaaa,aaaaaa
Aaaa,aaaa,aaaaaa

Dimineata-mi strica somnul
Dimineata-mi strica somnul
E|--3--3---2--0--2--3--3---5--5--|
B|--3--3---3--3--3--3--3---------|
G|--2--2---2--0--2--2--2---------|
D|---------0-----0---------------|
A|-------------------------------|
E|-------------------------------|

Visurile mi le prada
Visurile mi le prada
E|--3--3---2--0--2--3--3---5--5--|
B|--3--3---3--3--3--3--3---------|
G|--2--2---2--0--2--2--2---------|
D|---------0-----0---------------|
A|-------------------------------|
E|-------------------------------|

Ca sa-mi lase viata fada
E|--5--5--4--0--4--5--5--7--7--|
B|--5--5--5--5--5--5--5--------|
G|--4--4--4--0--4--4--4--------|
D|-----------------------------| 
A|-----------------------------|
E|-----------------------------|

Ornicul imi bate gongul
E|--5--5--4--0--4--5--5--7--7--|
B|--5--5--5--5--5--5--5--------|
G|--4--4--4--0--4--4--4--------|
D|-----------------------------| 
A|-----------------------------|
E|-----------------------------|
  G          D       A7
Si-mi aduce aminte c-ai plecat

Toate-mi par in jur straine
Toate-mi par in jur straine
Lumea-i rece fara tine
Lumea-i rece fara tine
Amintiri de-un gand atinse
Imi trezesc dureri aprinse
Si-mi aduc aminte c-ai plecat
Si-mi aduc aminte c-ai plecat

Refren:
   
         G
Te intreb pe tine soare
Dragostea murit-a oare???
E|--3--3---2--0--2--3--3---5--5--|
B|--3--3---3--3--3--3--3---------|
G|--2--2---2--0--2--2--2---------|
D|---------0-----0---------------|
A|-------------------------------|
E|-------------------------------|

          G
Te intreb pe tine soare
Dragostea murit-a oare???
E|--3--3---2--0--2--3--3---5--5--|
B|--3--3---3--3--3--3--3---------|
G|--2--2---2--0--2--2--2---------|
D|---------0-----0---------------|
A|-------------------------------|
E|-------------------------------|

E|--3--3---2--0--2--3--3---5--5--|
B|--3--3---3--3--3--3--3---------|
G|--2--2---2--0--2--2--2---------| De 4 doi
D|---------0-----0---------------|
A|-------------------------------|
E|-------------------------------|

E|--5--5--4--0--4--5--5--7--7--|
B|--5--5--5--5--5--5--5--------|
G|--4--4--4--0--4--4--4--------|
D|-----------------------------| De 2 ori
A|-----------------------------|
E|-----------------------------|

Impreuna ne-ntelegem
Impreuna ne-ntelegem
Ne uneste aceasi soarta
Ne uneste aceasi soarta
O stricam si iar o dregem
Mai din joaca mai din cearta
Dar mi-aduc aminte c-ai plecat
Dar mi-aduc aminte c-ai plecat

Refren:

Te intreb pe tine soare
Ma vezi tu pe mine oare???
Te intreb pe tine soare
Ma vezi tu pe mine oare???

E|--3--3---2--0--2--3--3---5--5--|
B|--3--3---3--3--3--3--3---------|
G|--2--2---2--0--2--2--2---------|
D|---------0-----0---------------|
A|-------------------------------|
E|-------------------------------|
  • sika
    1 iulie 2008 15:22
    e bun, dam un 5 :D ;)