Phoenix - Toamna

  • Contribuție:  anonime
FORMULE PENTRU VERSURI:

	FORMULA I:
G--------------------------------------
D--------5---5-3---3-5-3---------------
A--------------------------5-----------
E--3---3-----------------------3-3-----

Sus pe dealuri toamna pune....

	FORMULA a II-a:
G--------5---5-3---3-5-3---------------
D--------------------------5-----------
A--3---3-----------------------3-3-----
E--------------------------------------

Araturi ca de carbune....

	FORMULA a III-a:
G----------------------------- ----------12------- 
D----------------------------- ------------------- 
A--10--10--8--8--6--6--5--5--- --10--10------12--- 
E----------------------------- -------------------

G--------10------ --------8------- 
D------------10-- -----------8---- 
A--8--8---------- --6--6---------- 
E---------------- ---------------- 

G--------7-------------
D-----------7----------
A--5--5----------------
E----------------------

Si mohoare de rugina....

G------12------12------12------12--- -----10-----10-----10----10---
D----------------------------------- ------------------------------
A--10------10------10------10------- --8------8------8------8------
E----------------------------------- ------------------------------

G-----8-----8-----8----8--- -----7-----7-----7-----7----- 
D-------------------------- -----------------------------
A--6-----6-----6----6------ --5-----5-----5-----5--------
E-------------------------- -----------------------------

Si mohoare de rugina...

Pentru solo de chitara se executa formula a III-a.
  • tudor americanu
    25 aprilie 2008 03:41
    a deci este tab de bass?