Pistol cu capse - De azi pana ieri

  • (8 voturi)
  • Contribuție:  anonim252
Intro

e|-------------------------------------------|
B|-------------------------------------------|
G|-------------------------------------------|
D|--10-8-6-8-------6-------------------------|
A|-----------8---8---8-----------------------|
E|-------------9-----------------------------|

Strofe: G#5 C#5

e|-4--4-------------------------------------|
B|-4--4-------------------------------------|
G|-4--6-------------------------------------|
D|-6--6-------------------------------------|
A|-6--4-------------------------------------|
E|-4--4-------------------------------------|

Refren:

 A#5 C#5 G#5 F5 
e|-6--4--4--1-------------------------------|
B|-6--4--4--1-------------------------------|
G|-6--6--4--1-------------------------------|
D|-8--6--6--3-------------------------------|
A|-8--4--6--3-------------------------------|
E|-6--4--4--1-------------------------------|