Praf în Ochi - O mie de ganduri (intro)

  • (1 voturi)
  • Contribuție:  xplor
--------PRAF IN OCHI - O MIE DE GANDURI---------
Salutari. Am reusit sa scriu intr-un final si varianta originala (intro) a acestei piese...




E-----------------------0----------------------2-2-----2h3h2-------------------------------
B-------------------3-----3--------------1-----3---3---------3-----------------------------
G---------0-------0---0-----0--------0-----0---2-----2---------2---------------------------
D-----4-----4-----------------0----2---2-----2---------------------------------------------
A---2---2-----2-3----------------0---------------------------------------------------------
E-0----------------------------------------------------------------------------------------


E-----------------------0----------------------2-2h3h2-----12------------------------------
B-------------------3-----3--------------1-----3-------3-0---------------------------------
G---------0-------0---0-----0--------0-----0---2-------------------------------------------
D-----4-----4-----------------0----2---2-----2---------------------------------------------
A---2---2-----2-3----------------0---------------------------------------------------------
E-0----------------------------------------------------------------------------------------