Robin and the Backstabbers - Nataşa

  • (1 voturi)
  • Contribuție:  matei96
  • Ultima actualizare: 03.02.2014
Varianta asta este mai user-friendly decat cea pe care am postat-o anterior.
Am pus si solo-ul, acum e completa si, dupa parerea mea, corecta :)
Have fun!

Acorduri folosite: Bm Cm D A G F#m A# E F B 

Tuning: Half Step Down

Intro:
Bm Cm x4
Bm D A G x4

Bm (palm mute)
O fata mov se-arunca de pe bloc si 
		 Bm	   D
Lasa-n urma ei o dâra alba de scântei si-
  A	    G		Bm
O camera în care-o asteptam,
	 D	      A	   	G
Din care ne uitam cum lumea-nghite lumea
	Bm	     D		A
-nghite lumea-nghite lumea...
      G		Bm D A
Si ne lasa fara ea.
      G		Bm D A G
Si ne lasa fara ea.

   F#m     G          Bm            A
La mine-n camera e-ntuneric ca-ntr-o inima
    F#m      G            Bm             A
Dar oriunde arunc tot nimeresc si sparg ceva.
    F#m     G          Bm            A
La mine-n camera e-ntuneric ca-ntr-o inima.
F#m      G            Bm            A
Oriunde arunc tot nimeresc.

D C# x3 (aaa)
D

  Bm	  D		A	 G 
Iubirea dureaza. Deci iubirea conteaza.
  Bm	  	D	  A	 	G 
Iubirea nu ne vede, nu frâneaza. Accelereaza.
     Bm	  	D	A	    G 
Si Natasa mi-a taiat centura de siguranta.
  Bm	    D	      A	 	G 
Natasa a plecat fara sa-mi spuna cine sunt eu.
Bm    D	       A	 G 
Cine sunt eu, cine sunt eu
     Bm	     D		A	 G 
Cine sunt eu, cine sunt...

Solo: Bm D A G  x4

   F#m     G          Bm            A	   
Cu sânge plin de maghiran si heroina	    |
  F#m    G             Bm            A	    |
O fata mov ma asteapta goala-ntr-o masina.  |
     F#m          G     Bm          A	    |palm mute
Fara nicio amintire si fara nicio vina	    |
  F#m    G      Bm           A	    	    |
O viata noua asteapta sub rugina.	   /

   F#m     G          Bm         A   	   
Cu sânge plin de maghiran si heroina	    |
  F#m   G          	Bm            A     |
O fata mov ma asteapta goala-ntr-o masina.  |
     F#m     	G       Bm         A	    |1 strum/acord
Fara nicio amintire si fara nicio vina	    |
  F#m    G          Bm            A	    |
O viata noua...				   /


Solo: F#m G Bm A x4 (1 strum/acord)


Solo-ul propriu-zis:

e|-7p5------5-----------------------|-7------5-----------------------|
B|-----5-7----5-7--8p7-5-7-5--------|---5-7----5-7--8p7-5-7-5--------|
G|---------------------------7-4----|-------------------------7-4----|
D|--------------------------------7-|------------------------------7-| 
A|----------------------------------|--------------------------------|
E|----------------------------------|--------------------------------|

e|-----------------------------|--------------------/5------|
B|-3p2------3------3-5^7-3-5---|-3p2------3------3-----5----|
G|-----2-4----2-4--------------|-----2-4----2-4-------------|
D|-----------------------------|----------------------------| 
A|-----------------------------|----------------------------|
E|-----------------------------|----------------------------|


Bridge:
e|----------------------|
B|----------------------|
G|----4-7---------------|
D|---------7--5-4-------| x3
A|-----------------5----|
E|-7--------------------|

e|-----------------------|
B|-----------------------|
G|----4-7----------------|
D|---------7-7-----------|
A|-----------------------|
E|-7---------------------|

A		      G
	Mi-ai spus sa am curaaj...

Bm	  D		A	 G 
O fata mov se-arunca de pe bloc...
Bm	  D		A	 G 
O fata mov se-arunca de pe bloc...
  Bm	       D	     A	 	G 
O fata mov se-arunca de pe bloc si lasa-n urma ei
   A/A#/B A  A/A#/B B  E/F/F#m
NIMIC.

Outro:
(power chords)
 	A/A#/B A  		
	A/A#/B B	 |
	E/F/F#m		/ x3
	
	A/A#/B A
	A/A#/B B
	A/A#/B

	A/A#/B A  	
	A/A#/B B	 |
	E/F/F#m		/ x2
	B

~~~~~~~~~~~~~~~~~~~~~~~~~~~~~~

/=slide
p=pull-off
h=hammer-on
^=bend
  • andinomm
    22 iunie 2018 13:02
    Suna chiar bine, merge cu chitara in standard si power chords cu un semiton mai jos. Pe acustica intr-adevar e mai usor cu half step down si acordurile open :D
  • stefble
    1 iulie 2016 14:19
    Nice tab! Well done!
    Voiam să îți sugerez la solo la prima parte, o mică modificare...mie îmi sună mai bine așa...

    e|-7p5-------5--------5-----------------|-7------5--------5-------------------|
    B|-------5-7-----5-7-----7-5-----------|----5-7----5-7-----7-5-------------|
    G|------------------------------7-6------|---------------------------7-6--------|
    D|------------------------------------7---|----------------------------------7---|