Sebastian Albu - Ea venea

  • Contribuție:  catalins
  • Ultima actualizare: 03.01.2011
Intro (aproximativ):

E|--------3--7--5p3--------3--5p3--0-----------3--2--0-----------
B|-----3----------------3-------------------3-----------3--1--0--
G|--0----------------0-------------------0-----------------------
D|---------------------------------------------------------------
A|------------------------------------3--------------------------
E|---------------------------------------------------------------

E|-----------2h3p2p0-----------------2--------3h5h3-----------3-----------3-
B|--------3-----------3-----------3--------3---------3-----3-----------3----
G|-----2-----------------2-----2---------0--------------0-----------0-------
D|--0-----------------------0-----------------------------------------------
A|---------------------------------------------------------------3----------
E|--------------------------------------------------------------------------

 G
Aveam un rost acolo,
Cadd9
Nuferi cu luciri de stele,
D             G
Să-i adun din apa verde
Cadd9          D
Şi să-i duc domniţei mele.

G
Să îl feresc de frigul iernii,
Cadd9
Aşteptându-l la picioare
D             G
Şi pe cel din urmă mugur
Cadd9       D
Când era să deie-n floare.

G
Şi ca-n fiecare vară
Cadd9
Jos sta a sălcioare-i vale,
D            G
Pentru ea pornesc să-i aflu
Cadd9         D
Şi să-i duc măriei sale.


Bridge:
G
Lângă ea-s de mult acolo,
Cadd9
Mi-a ieşit în cale-aproape
D        G
Fiica râului, frumoasă,
Cadd9            D
Dinspre trestii, dinspre ape.


Refren:
     G   D         G   D
Ea veneaaa,  ea cântaaaa,
     G   D
Ea veneaaa
      Am        C
Şi cânta ca o ispită,
      G   D
Ea cântaaaa
   Am              C
În dans uşor pe-al undelor…
     G   D
Ea veneaaa
      Am        C
Şi cânta ca o ispită,
      G  D
Ea cântaaa,
       Am      C
Dulcea fragă aurită,
     G   D        G   D
Ea veneaaa, ea cântaaaa…

     G                       Cadd9
Când fiica râului, parcă din veri
              D
Parcă din veeeeri
              G          Cadd9
În înveliş de luminişuri calde,
    D
Luminişuri calde,
G                            Cadd9
În dans uşor, pe-al undelor poteci,
              D
Pe-al undeloooor,
            G          Cadd9
Va căuta în unde să se scalde,
      D
Să se scalde…

Bridge:…
Refren:…


Sebastian Albu & Tudor Popa - "Pur si simplu"

Legenda:
    G: 320033
Cadd9: x32033
    D: xx0232 (uneori se mai aude şi câte un Dsus4:xx0233 pe strofe, la sfârşitul lor)

În mare, cam asta e...
Criticile...constructive sunt binevenite :)
Enjoy!
6Ld5REUUAAAAAA1PBEDya2BDGnf5rYKeKnmYm4Cz
e9fe1cb37c841074532d12e2a1644dd8