Ska-nk - Arata-i c-o iu...

  • (4 voturi)
  • Contribuție:  ghit razvan
  • Ultima actualizare: 11.11.2012
G                           Em 
Daca ai foarte mici dubii despre prietena ta
     C                         D
Daca simti ca ea se vede cu altcineva
     G                           Em
Daca ea mereu se ascunde cand primeste SMS
     C                           D
Daca ea mereu adoarme si n-o mai faceti des


             C               D
REF: Arata-i c-o'iu, arata-i c-o'iu
             G           Em
     Arata-i c-o iubesti
             C               D
     Arata-i pe’nis, arata-i pe nisip 
         G
     C-o indragesti...

     G                            Em 
Daca prietena ta se imbata cand iesiti in oras
     C                              D
Daca o gasesti mereu lata, pe vreun covoras
  G                              Em
Baietii roiesc langa ea, parc-ar fi superstar
    C                           D
Telefonu-i suna des, sa nu-ti para bizar

REF: Arata-i c-o'iu, arata-i c-o'iu
             G           Em
     Arata-i c-o iubesti
             C               D
     Arata-i pe’nis, arata-i pe nisip 
         G
     C-o indragesti...

F         C            G              D 
Si dac-ai stii ce mult vrea sa-ti fie bine
F            C         G            D
N-ai mai suferi cand e moarta langa tine
   F         C         G        D
Si nu e vina e-e-ei ca iar e ametita
  F       C           G           D
E vina bauturii ca se ascundea in sticla


SOLO pe acordurile: C, D, G, Em

e|------------|---------------------------|
B|------------|--12----12-12-12-12-12-----|
G|------------|-----14----------------12--|
D|-7h9-7h9-7h9|---------------------------|
A|------------|---------------------------|
E|------------|---------------------------|

e|----------------------------------------------------------|
B|-12-12-12-12-12----------12h13-12-------------------------|
G|----------------14-12-14----------14-12--11h12-11h12-11h12|
D|----------------------------------------------------------|
A|----------------------------------------------------------|
E|----------------------------------------------------------|

e|--------------------------------------------------|
B|--12-12-12-12-12----------12-12-12-12-12----------|
G|-----------------14-12-14-----------------14-12---|
D|------------------------------------------------12|
A|--------------------------------------------------|
E|--------------------------------------------------|

e|----------------------------------------------------------|
B|-12-12-12-12-12----------12h13-12-------------------------|
G|----------------14-12-14----------14-12--11h12-11h12-11h12|
D|----------------------------------------------------------|
A|----------------------------------------------------------|
E|----------------------------------------------------------|


REF: Arata-i c-o'iu, arata-i c-o'iu
             G           Em
     Arata-i c-o iubesti
             C               D
     Arata-i pe’nis, arata-i pe nisip 
         G
     C-o indragesti...
  • alex285
    24 mai 2016 14:34
    Care este bătaia?
  • alecz93
    10 noiembrie 2012 10:02
    Foarte fain... solo-ul pe unde l'ai ascuns? :D
6Ld5REUUAAAAAA1PBEDya2BDGnf5rYKeKnmYm4Cz
d5929a2fb74921cd87e15117c202057d