Ska-nk - Scafandru Nelu'

  • (1 voturi)
  • Contribuție:  Serjioo
Intro chitara ritm
|--------------------------------------------------|-
|--------------------------------------------------|-
|--8-8-8-10-10-10-10-10-12-12-12-10-10-10-10-10----|-
|--8-8-8-8--8--8--8--8--8--8--8--8--8--8--8--8-----|-(x2)
|--------------------------------------------------|-
|--------------------------------------------------|-

|----------------------------------|-
|----------------------------------|-
|--8-8-8-10-10-10-8-8-8-12-10-8-10-|-
|--8-8-8-8--8--8--8-8-8-8--8--8-8--|-
|----------------------------------|-(x4)
|----------------------------------|-

Intro chitara solo
|-----------------------------------------|-------|-
|-----------------------------------------|-------|-
|--12-12-12-13-13-13-12-12-12-15-13-12-13-|--12~--|-
|-----------------------------------------|-------|-
|-----------------(x2)--------------------|-------|-
|---------------(dupa a doua masura de chitara ritm)


Vers
|----------------|-                    |
|----------------|-                    |   
|----------8h10--|-                    |
|--8-8-8-8-------|-                    |
|----------------|-                    |
|----------------|-(x2)                 |X2
                                     |
|----------------|------------------|-   |
|----------------|------------------|-   |
|----------8h10--|----------8-8-----|-   |
|--8-8-8-8-------|--8-8-8-8-----8-8-|-   |
|----------------|------------------|-   |
|----------------|------------------|-   |


|----------------------------------------------------|-
|----------------------------------------------------|-
|--------8-----10-----8----12--12-12-12-12-12-10-12--|-
|--8-8-8---8-8----8-8---8-8/-------------------------|-
|----------------------------------------------------|-
|----------------------------------------------------|-(X2)


|-----------|-
|-----------|-
|--8--------|-
|--8-8-6-10-|-(cu 4 batai pe fiecare si 8 pe ultimul acord)
|----8-6-10-|-
|-----------|-


Pe refren aveti D#5 A#5 C#5 G#5 la chitara ritm

Refren chitara solo prima data dupa care face ce face si chitara ritm.
|-------------------|--11-11-11-10-10-10-10-10-|-
|-------------------|--------------------------|-
|--8-7---7-8-10-8-7-|--------------------------|-
|------8------------|--------------------------|-
|-------------------|--------------------------|-
|-------------------|--------------------------|- 
    (x3)

Vers 
Refren

Solo peste acordurile de refren

|------------------------------------------------------|-
|------------------------------------------------------|-
|--12-10----10h-12p10-----10---------------------------|-
|--------13-----------13----12-13-13-13-12-12-12-12-12-|-
|------------------------------------------------------|-
|------------------------------------------------------|-

|---------------------------------------------------------|-
|---------------------------------------------------------|-
|---------------------------------------------------10-10-|-
|--13-12-10-12h13p-12-10-12----12-12-12-13-13-13-13-------|-
|---------------------------13----------------------------|-
|---------------------------------------------------------|-

  D#       A#   C         G# G#
|----------------------------------|-
|--11-11-11------------------------|-
|-----------10-10-12-12-12-12------|-
|-----------------------------8----|-
|-------------------------------10-|-
|----------------------------------|-


Outro 
|-------------------|-
|-------------------|-
|--12-12-12-10-7/8--|-
|-------------------|-
|-------------------|-
|-------------------|-
6Ld5REUUAAAAAA1PBEDya2BDGnf5rYKeKnmYm4Cz
2353fe2c78817d8bbc4f372da29ca4cf