Smiley - (cu Alex Velea feat. Don Baxter) Cai verzi pe pereti

  • (5 voturi)
  • Contribuție:  pradan
Intro:

         Am
e------------0---------------0-----0----------------------------
B--------1-----0---1-----1-----3-1---3-1------------------------
G--------------------1------------------------------------------
D---------------------------------------------------------------
A---------------------------------------------------------------
E---------------------------------------------------------------

Interludiu:
     Am        Em         F         C     G
e-----0-----|----------|----------|---0-|---0-------------------
B-------1---|----0-----|----1-----|-----|-----------------------
G---------2-|------0---|------2---|-----|-----------------------
D-----------|--------2-|--------3-|-----|-----------------------
A---0-------|----------|----------|-3---|-2---------------------
E-----------|--0-------|--1-------|-----|-----------------------

Vers:

S-acum sa va cant o piesa din 
Am     Em     F
la, la-la, la-la
   C         G
La la-la-la, la-la-la..

Am               Em               F
Viata e o structura complexa concava sau convexa
           C            G       Am
Sti cand intri dar nu sti cand iesi.
       Em 
Dreapta, perversa
    F               C       G     Am
Ea te trateaza exact cum o tratezi
           Em               F
Si nu vrei deloc sa incetezi 
              C            G         Am
Ca te doboara te ri.dici te ener.vezi
            Em                  F
Si zambesti si continui sa speri 
              C        G      
Visand la caii verzi pe pe-



Interludiu:
reti, la caii verzi pe pereti.. caii verzi pe pereti.. la caii verzi pe pereti
 
Refren:(la fel ca pe vers)
La la la.. la la la la la la la..

Vers:
Sapte zile din sapte incerc sa ma feresc de belele rele nu caut belele
Mama mi-a zis de mic sa ma feresc de eleee
Fi fericit indiferent de temeri fi optimist spera la paradisul promis
L-am gasit si acum privesc cai verzi pe pereti
Caii verzi pe pereti.. caii verzi pe pereti..
La la la.. la la la la la la la..
Eenie meenie miny moe ( ini mini maini mo) caii tai nu sunt maro
N-am nopti cand sunt calare si visez ca-I calaresc cand imi canta tadala
Viata nu-I deloc complicata noi o complicam in aceasta fuga disperara
Dupa lovele, dupa putere, dupa tot ce ne creaza o falsa placere
Ai mei imi zic mereu fa si tu ceva.. ia-ti te rog permisul, te rog nu mai bea
Decat sa am sub capote 300 de cai fitosi mai bine ma las tras de 6 cai frumosi
Caii verzi pe pereti.. caii verzi pe pereti
La la la.. la la la la la la la..
Si nu vrei deloc sa incetezi ca te doboara te ridici te enervezi
Si zambesti si continui sa speri visand la caii verzi pe pereti
Visand la caii verzi pe pereti
Visand la caii verzi pe pereti pereti pereti
La la la.. la la la la la la
Visand la caii verzi pe pereti.. caii verzi pe peretï
  • FulllMoon1
    26 februarie 2013 17:27
    e------------0---------------0-----0----------------------------
    B--------1-----0---1-----1-----3-1---3-1------------------------
    G--------------------2------------------------------------------
    D--------------------!!!-------------------------------------------
    La "!!!" este varianta corecta. In taburile de mai sus scrie 1, insa este defapt 2. Puteti asculta melodia, eu asa o aud.
    Bafta!
  • slatina
    22 noiembrie 2012 17:04
    la partea de la intro cu 0 3 1 nu prea poti s-o faci decat pe amplificator(statie) cu un 0 3h1
  • pradan
    27 octombrie 2012 11:11
    cu mare placere!
  • KidDarkness97
    26 octombrie 2012 19:29
    Multumesc mult:X!
  • pradan
    26 octombrie 2012 18:58
    Am zis ca decat sa explic mai bine iti arat:
    http://www.youtube.com/watch?v=GSvcsmdVM6g
    Scuze de claritate l-am facut cu un telefon doar pentru bataie.
    lovesti de jos in sus:)
    spor!
a58c242d803df9ae94169f77b0b87d47