Smiley - In lipsa mea

  • (7 voturi)
  • Contribuție:  sammy81
Intro

                F#m                                     F#m
E:-----------------------------------------------------------------------------|
B:------------10h11p10-----------10------------------10h10p10-------------10---|
G:--------11------------11----11------------------11-----------11------11------|
D:-----11-------------------11-----------------11--------------------11--------|
A:---9--------------------9------------------9---------------------9-----------|
E:-----------------------------------------------------------------------------|

                Bm                                      Bm
E:----------------------------------------------------------------------------|
B:-----------7h9p9---------7----------------7h8p8-----------7-----------------|
G:--------7--------7-----7----------------7--------7-----7--------------------|
D:-----9---------------9----------------9--------------9----------------------|
A:--9----------------9---------------9---------------9------------------------|
E:----------------------------------------------------------------------------|


Acorduri folosite pe parcursul melodiei:

F#m       Bm


 [Smiley]
Oh,oh,oh…
Sunt cu fata spre usa
Si cu ochii spre ea
Zic “adio” ea zice “te rog nu pleca”
Fac un pas
Mi se arunca in genunchii ei goi
Am vazut-o cu el si nu pot da inapoi…

O masina parcata pe dos
Hainele aruncate pe jos 
Deschid usa destul de usor
Aud zgomote din dormitor
Imi faceam mii de griji pentru ea
Telefonul inchis il tinea
Ei se iubeau sus in camera mea
Pe patul meu si pe muzica mea
Oh!

Ref: Mi-as fi vandut si sufletul 
Pentru o femeie cum esti tu
Dar in lipsa mea
Tu mi l-ai amanetat deja (x2)

[Uzzi]
Si nu o sa mai fie la fel pur si simplu
Baietii sunt baieti si femeile sunt fe…
Sa poata spune te iubesc cu alt nume pe buze
Sa se uite frumos gandind la un prost
Care vorba ta parcheaza o masina pe dos
Chiar nu stiu ce sa zic, frate
Asa sunt toate
Cred ca vor sa-si demonstreze ca inca merge
Ca nu e de bani sau ca vor mai bine
Daca nu era cu tine il insela cu tine

Bine tu esti plecat si e marfa in club
Se duce bea si o ia cu sub bas, bas, bas
Dupa bas un pas si se rupe-n dans
Si oricare ar da la ea ca femeia e frumoasa 
Si arata ca vrea
E clar ca-i place asa 
Daca era pe patul tau si pe muzica ta
Hai, da-o ma!


Ref: Mi-as fi vandut si sufletul 
Pentru o femeie cum esti tu
Dar in lipsa mea
Tu mi l-ai amanetat deja (x2)

[Smiley]
O masina parcata pe dos
Hainele aruncate pe jos 
Deschid usa destul de usor
Aud zgomote din dormitor
Imi faceam mii de griji pentru ea
Telefonul inchis il tinea
Ei se iubeau sus in camera mea
Pe patul meu si pe muzica mea
Oh!

Ref: Mi-as fi vandut si sufletul 
Pentru o femeie cum esti tu
Dar in lipsa mea
Tu mi l-aï amanetat deja (x5)
  • sammy81
    25 februarie 2013 13:27
    In mare parte cantecele pe care le-am adaugat sunt de 5 stele dar nu stiu de ce primesc si 2 sau 3. Poate nici nu le verifica inainte si dau aiurea.
  • rekisor
    25 februarie 2013 03:43
    foarte buna tabulatura nu inteleg dc are asa putine voturi astia cred ca vrea mura in gura ca nu simt si ei cand trebuie sa ia acordurile
6Ld5REUUAAAAAA1PBEDya2BDGnf5rYKeKnmYm4Cz
4e850d624a778378fad6b5fb6ffa262f