Ștefan Bănică Junior - Doar odata-i Craciunul (solo chitara)

E-------------------------------------------------|
B--------------------------1----------------------|
G---0-0h2~~--0-0h2~~--0-0h2-2~~-------------------|
D--2--------2--------2----------0h2p0-------------|
A--------------------------------------3-----3~~--|
E----------------------------------------3s5------|

E-------------------------------------------------|
B-------------------------------------------------|
G-------------------------------------------------|
D---0-0h2~~--2-0---------5h7p5~~--5~7~s9~---------|
A--3------------3~-5~-7~--------------------------|
E-------------------------------------------------|

E--------------------------8~~~-------------------|
B----8--------8--------8-------10~-8h10p8---------|
G-7s9-9~~--7s9-9~~--7s9--9~--------------10~~-----|
D-------------------------------------------------|
A-------------------------------------------------|
E-------------------------------------------------|

E--------------------------------------------3----|
B---------------8----------8-----------------3----|
G----7-7h9~~-7s9-9-7----7s9-9-7~~7~7s9-7~~5~~4----|
D--10---------------10~----------------------5----|
A--------------------------------------------5----|
E--------------------------------------------3----|

"~"=tremolo
"h"=hammer on
"p"=pull of
"s"=slide
  • silvium
    22 decembrie 2009 15:22
    Multumesc.
6Ld5REUUAAAAAA1PBEDya2BDGnf5rYKeKnmYm4Cz
e25989b143deee357cfdf5b2ac2b0c29