The Marker - If you didn't love me (TAB)

===> Capo 4 <===

Intro X2:

E|------------0-------------------------0----------------|
B|--------3------------3------------3-----------3--------|
G|------0---0-----0------0--------0---0-----0-----0------|
D|----4---------4---4-----------4---------4---4----------|
A|----------------------------3--------------------------|
E|--0----------------------------------------------------|


E|------------0-------------------------0----------------|
B|--------3-----------3-------------3-----------3--------|
G|------0---0-----0-----0---------0---0-----0-----0------|
D|----4---------4---4-----------4---------4---4----------|
A|-------------------------------------------------------|
E|--3-------------------------2--------------------------|


Verse 1:

             I walked alone       for many years,
E|------------0-------------------------0----------------|
B|--------3------------3------------3-----------3--------|
G|------0---0-----0------0--------0---0-----0-----0------|
D|----4---------4---4-----------4---------4---4----------|
A|----------------------------3--------------------------|
E|--0----------------------------------------------------|

           I' ve made mistakes,     I've cried some tears
E|------------0-------------------------0----------------|
B|--------3-----------3-------------3-----------3--------|
G|------0---0-----0-----0---------0---0-----0-----0------|
D|----4---------4---4-----------4---------4---4----------|
A|-------------------------------------------------------|
E|--3-------------------------0--------------------------|

                 You were always there...
E|------------0-------------------------0----------------|
B|--------3------------3------------3-----------3--------|
G|------0---0-----0------0--------0---0-----0-----0------|
D|----4---------4---4-----------4---------4---4----------|
A|--3----------------------------------------------------|
E|----------------------------0--------------------------|

                 You were always there...                Cadd9 
E|------------0-------------------------0------------------0---|
B|--------3------------3------------3-----------3----------3---|
G|------0---0-----0------0--------0---0-----0-----0--------0---|
D|----4---------4---4-----------4---------4---4------------2---|
A|--3------------------------------------------------------3---|
E|----------------------------0----------------------------0---|

Verse 2:

             I never knew           a love like Yours,   
E|------------0-------------------------0----------------|
B|--------3------------3------------3-----------3--------|
G|------0---0-----0------0--------0---0-----0-----0------|
D|----4---------4---4-----------4---------4---4----------|
A|----------------------------3--------------------------|
E|--0----------------------------------------------------|

          A heart that beats        with love so pure..
E|------------0-------------------------0----------------|
B|--------3-----------3-------------3-----------3--------|
G|------0---0-----0-----0---------0---0-----0-----0------|
D|----4---------4---4-----------4---------4---4----------|
A|-------------------------------------------------------|
E|--3-------------------------0--------------------------|

                 You were always there...
E|------------0-------------------------0----------------|
B|--------3------------3------------3-----------3--------|
G|------0---0-----0------0--------0---0-----0-----0------|
D|----4---------4---4-----------4---------4---4----------|
A|--3----------------------------------------------------|
E|----------------------------0--------------------------|

                 You were always there...                     
E|------------0-------------------------0----------------|
B|--------3------------3------------3-----------3--------|
G|------0---0-----0------0--------0---0-----0-----0------|
D|----4---------4---4-----------4---------4---4----------|
A|--3----------------------------------------------------|
E|----------------------------0--------------------------|



        C                G 
 Chorus:  If You didn't love me
          D             Em
          Where would I be
             C              G
          My heart was so broken
          D           Em
          I couldn't see
               C             G
          Your love that sorrounds me 
          D              Em
          And set's me free 
   C                    D
          Where would I be  
   C                    Em
          If You didn't love me..




 Repeat: Verse 2
         Chorus


       .::END::.
6Ld5REUUAAAAAA1PBEDya2BDGnf5rYKeKnmYm4Cz
c9217b56c55caba2e27ff2b30b9b67f6