The MOOoD - Extasy

  • (1 voturi)
  • Contribuție:  Dani
Ascultati melodia pentru ritm.

INTRO/VERS:

E -4-----7-----9----7--9---
B -4-----7-----9----7--9---
G -5-----8-----10---8--10--
D -6-X8--9-X4--11---9--11-- X4
A -6-----9-----11---9--11--
E -4-----7-----9----7--9---

REFREN:

E -4-4-7-7-9--9--7-7--4-4-7-7-5-5-5-5-------
B -4-4-7-7-9--9--7-7--4-4-7-7-5-5-5-5-------
G -5-5-8-8-10-10-8-8--5-5-8-8-6-6-6-6-------
D -6-6-9-9-11-11-9-9--6-6-9-9-7-7-7-7------- X2
A -6-6-9-9-11-11-9-9--6-6-9-9-7-7-7-7-------
E -4-4-7-7-9--9--7-7--4-4-7-7-5-5-5-5-------
f8ec2bdd8fa49d83bbe0ed87a42b1e74
6Ld5REUUAAAAAA1PBEDya2BDGnf5rYKeKnmYm4Cz