Timpuri Noi - Bordelul mov

  • (2 voturi)
  • Contribuție:  anonime
Intro
e|-------------------------------------------------------------|
B|-------------------------------------------------------------|
G|-------------------------------------------------------------|
D|-------------------------------------------------------------|
A|-------------7----------7----------7----------7----------7---|
E|---12\7--0-0----0-0-0-0----0-0-0-0----0-0-0-0----0-0-0-0-----|

Chorus
e|----------------------------------|
B|----------------------------------|
G|----------------------------------|
D|---9-9---5-5---7-7--7-5-4-5-4\2---|
A|---9-9---5-5---7-7--7-5-4-5-4\2---|
E|---7-7---3-3---5-5--5-3-2-3-2\0---|
6Ld5REUUAAAAAA1PBEDya2BDGnf5rYKeKnmYm4Cz
6ac058c27e6df7700f41782b7b732ab1