Timpuri Noi - Perfect

  • (12 voturi)
  • Contribuție:  anonim120
intro:
e|------------------------|
B|-----1-0-----0-1--------|
G|-----------0------0~~---|
D|---3-----3--------------|
A|------------------------|
E|------------------------|

F        G         Am
Ferit de intemperii, 
Graul de toamna
Receptionat la timp, 
Este asigurat
Perfect.

e|------------------------------------------|
B|-----1-0-----0-1-------------5-6-5--------|
G|-----------0------0~~------5-------5~~----|
D|---3-----3--------------/7----------------|
A|------------------------------------------|
E|------------------------------------------|

F     G      Am
Oile placide 
S-au asternut la iernat
Privesc nutretul cu multa pofta
Din care vor consuma iarna intreaga,
Perfect.

bridge:

    Em               G         
e|----------7--7--7--7--7--7--7\--|
B|----------8--8--8--8--8--8--8\--|
G|--------------------------------|

Ref:

C      G          Am
O, totul e minunat

Strofa 2: 
   Oile placide....

Bridge:
Ref:

Bridge 2 - chestia gen flamenco   Am  F  G
6Ld5REUUAAAAAA1PBEDya2BDGnf5rYKeKnmYm4Cz
edd4005590cb0ea696fb26e0dc72f721