Travka - Ce noapte

  • (12 voturi)
  • Contribuție:  generalDona
  • Ultima actualizare: 13.07.2008
|----------0-----------------1---------------3----------------0-----|
|-------1----1-------------1---1-----------1---1------------0---0---|
|-----2--------2---------2-------2-------0-------0--------0------0--|
|---2------------------3---------------2----------------2-----------|
|--0-----------------3---------------3----------------2-------------|
|-------------------------------------------------------------------|
   Am                F                C               Em

         
partea a 2-a
|----------------3p1-------------1---------------------------
|-----------0h1---------------1-----1-------------0h1--------
|------2------------------2----------2-------0--------0------
|----2---2------------------3--------------2---2---------2---
|--0-------------------3-----------------3-------------------
|------------------------------------------------------------
   Am                  F                 C

|----------------3---|
|------0---------3---|
|------0-------4-4---|
|----2-----2/5-------|
|--2-----------------|
|--------------------|
   Em       G

          acum loveste acordurile urmatoare

   Am    F    C    G
|---0----1----3----3-----|
|---1----1----1----3-----|
|---2----2----0----0-----|
|---2----3----2----0-----|
|---0----3----3----2-----|
|------------------3-----|
     
   Acum la partea cu "Te acuz..' aceleasi acorduri
da imi place sa fac o mica chestie care nu este in mel originala
da pt mine merge ca nu am voce si e buna pt tempo..deci

|-0-0-0--------1-1-1-------0-0-3-------3-3-----3--
|-1-1---1------1-1---1-----1-1---1-----3-3-----3--
|-2-2-----2----2-2-----2---0-0-----0---0-0-----0--
|-2-2----------3-3---------2-2---------0-0-----0--
|-0-0----------3-3---------3-3---------2-2-2-2-2--
|--------------------------------------3-3-3-3-3--
Va trebui sa ascultati melodia ca sa va dati seama ce parte sa cantati si pana cand.
Nu stiu cat de corecta este aceasta tabulatura, dar eu asa cant melodia 
si iese destul de bine, fara diferente majore.

Plangeri si amenintari la : gabryllon@yahoo.com
b1b483dd6da28edafff892a1b8225271