Travka - Fetele-n luna

  • Contribuție:  andinomm
  • Ultima actualizare: 24.06.2021
Rifful e in jurul acordului Dm
TUNING: drop D

Riff principal:
E|--------5----------5-------------1--------------0---------|
B|--------6----------5-------------3--------------3---------|
G|--------7----------7-------------2--------------2---------|
D|--------7----------7-------------0--------------0---------|
A|--------5----------5-------------0--------------0---------|
D|---0-0--------5-5----------0-0-------------3-3------------|

Bridge si refren final
E|--------|:-------------------------------------------------:|
B|--------|:-------------------------------------------------:|
G|--------|:-------------------------------------------------:|
D|--------|:-----7777-------3333------2--555---2-333---------:|
A|--------|:-----7777-------3333------2--555---2-333---------:|
D|---7s0--|:-----7777-------3333------2--555---2-333---------:|


Dumnezeu zboara pe de-asupra oraselor in razboaie cu pace
De jur imprejur stelele aseaza
Dumnezeu danseaza
In totdeauna la distanta potrivita
De lumea inebunita
Dupa amor in nesomn si visare
Fetele stau mai aproape de luna (x4)

Dumnezeu umbla pe de-asupra oraselor
In razboaie cu pace
Din Birlad si pana-n Baghdad stelele aseaza, Dumnezeu danseaza
Intodeauna la distanta potrivita de lumea inebunita
Dupa amor, in nesomn si visare
Fetele stau mai aproape de luna(x4)

(Bridge)

Fetele stau mai aproape de luna
Cu picioarele infipte in pamant stau curvele
Fetele stau mai aproape de luna
Cu picioarele infipte in pamant stau curvele
Fetele stau mai aproape de luna.
c021f97cd4cf5ed88236f1c084b9da74